  0
SECTION
  2
HEADER
  9
$ACADVER
  1
AC1024
  9
$ACADMAINTVER
 70
     6
  9
$DWGCODEPAGE
  3
ANSI_1252
  9
$LASTSAVEDBY
  1
m.muehle
  9
$INSBASE
 10
0.0
 20
0.0
 30
0.0
  9
$EXTMIN
 10
-497.18473448496
 20
-156.858654729173
 30
0.0
  9
$EXTMAX
 10
196.85567172222
 20
145.982844852065
 30
0.0
  9
$LIMMIN
 10
0.0
 20
0.0
  9
$LIMMAX
 10
420.0
 20
297.0
  9
$ORTHOMODE
 70
     0
  9
$REGENMODE
 70
     1
  9
$FILLMODE
 70
     1
  9
$QTEXTMODE
 70
     0
  9
$MIRRTEXT
 70
     1
  9
$LTSCALE
 40
5.0
  9
$ATTMODE
 70
     1
  9
$TEXTSIZE
 40
2.5
  9
$TRACEWID
 40
1.0
  9
$TEXTSTYLE
  7
Standard
  9
$CLAYER
  8
0
  9
$CELTYPE
  6
ByLayer
  9
$CECOLOR
 62
   256
  9
$CELTSCALE
 40
1.0
  9
$DISPSILH
 70
     0
  9
$DIMSCALE
 40
1.0
  9
$DIMASZ
 40
2.5
  9
$DIMEXO
 40
0.625
  9
$DIMDLI
 40
3.75
  9
$DIMRND
 40
0.0
  9
$DIMDLE
 40
0.0
  9
$DIMEXE
 40
1.25
  9
$DIMTP
 40
0.0
  9
$DIMTM
 40
0.0
  9
$DIMTXT
 40
2.5
  9
$DIMCEN
 40
2.5
  9
$DIMTSZ
 40
0.0
  9
$DIMTOL
 70
     0
  9
$DIMLIM
 70
     0
  9
$DIMTIH
 70
     0
  9
$DIMTOH
 70
     0
  9
$DIMSE1
 70
     0
  9
$DIMSE2
 70
     0
  9
$DIMTAD
 70
     1
  9
$DIMZIN
 70
     8
  9
$DIMBLK
  1

  9
$DIMASO
 70
     1
  9
$DIMSHO
 70
     1
  9
$DIMPOST
  1

  9
$DIMAPOST
  1

  9
$DIMALT
 70
     0
  9
$DIMALTD
 70
     3
  9
$DIMALTF
 40
0.03937007874
  9
$DIMLFAC
 40
1.0
  9
$DIMTOFL
 70
     1
  9
$DIMTVP
 40
0.0
  9
$DIMTIX
 70
     0
  9
$DIMSOXD
 70
     0
  9
$DIMSAH
 70
     0
  9
$DIMBLK1
  1

  9
$DIMBLK2
  1

  9
$DIMSTYLE
  2
ISO-25
  9
$DIMCLRD
 70
     0
  9
$DIMCLRE
 70
     0
  9
$DIMCLRT
 70
     0
  9
$DIMTFAC
 40
1.0
  9
$DIMGAP
 40
0.625
  9
$DIMJUST
 70
     0
  9
$DIMSD1
 70
     0
  9
$DIMSD2
 70
     0
  9
$DIMTOLJ
 70
     0
  9
$DIMTZIN
 70
     8
  9
$DIMALTZ
 70
     0
  9
$DIMALTTZ
 70
     0
  9
$DIMUPT
 70
     0
  9
$DIMDEC
 70
     2
  9
$DIMTDEC
 70
     2
  9
$DIMALTU
 70
     2
  9
$DIMALTTD
 70
     3
  9
$DIMTXSTY
  7
Standard
  9
$DIMAUNIT
 70
     0
  9
$DIMADEC
 70
     0
  9
$DIMALTRND
 40
0.0
  9
$DIMAZIN
 70
     0
  9
$DIMDSEP
 70
    44
  9
$DIMATFIT
 70
     3
  9
$DIMFRAC
 70
     0
  9
$DIMLDRBLK
  1

  9
$DIMLUNIT
 70
     2
  9
$DIMLWD
 70
    -2
  9
$DIMLWE
 70
    -2
  9
$DIMTMOVE
 70
     0
  9
$DIMFXL
 40
1.0
  9
$DIMFXLON
 70
     0
  9
$DIMJOGANG
 40
0.785398163397
  9
$DIMTFILL
 70
     0
  9
$DIMTFILLCLR
 70
     0
  9
$DIMARCSYM
 70
     0
  9
$DIMLTYPE
  6

  9
$DIMLTEX1
  6

  9
$DIMLTEX2
  6

  9
$DIMTXTDIRECTION
 70
     0
  9
$LUNITS
 70
     2
  9
$LUPREC
 70
     4
  9
$SKETCHINC
 40
1.0
  9
$FILLETRAD
 40
10.0
  9
$AUNITS
 70
     0
  9
$AUPREC
 70
     0
  9
$MENU
  1
.
  9
$ELEVATION
 40
0.0
  9
$PELEVATION
 40
0.0
  9
$THICKNESS
 40
0.0
  9
$LIMCHECK
 70
     0
  9
$CHAMFERA
 40
0.0
  9
$CHAMFERB
 40
0.0
  9
$CHAMFERC
 40
0.0
  9
$CHAMFERD
 40
0.0
  9
$SKPOLY
 70
     0
  9
$TDCREATE
 40
2458892.279028391
  9
$TDUCREATE
 40
2458892.237361724
  9
$TDUPDATE
 40
2458892.279032917
  9
$TDUUPDATE
 40
2458892.23736625
  9
$TDINDWG
 40
0.0000000116
  9
$TDUSRTIMER
 40
0.0000000116
  9
$USRTIMER
 70
     1
  9
$ANGBASE
 50
0.0
  9
$ANGDIR
 70
     0
  9
$PDMODE
 70
     2
  9
$PDSIZE
 40
1.0
  9
$PLINEWID
 40
0.0
  9
$SPLFRAME
 70
     0
  9
$SPLINETYPE
 70
     6
  9
$SPLINESEGS
 70
     8
  9
$HANDSEED
  5
28C
  9
$SURFTAB1
 70
     6
  9
$SURFTAB2
 70
     6
  9
$SURFTYPE
 70
     6
  9
$SURFU
 70
     6
  9
$SURFV
 70
     6
  9
$UCSBASE
  2

  9
$UCSNAME
  2

  9
$UCSORG
 10
0.0
 20
0.0
 30
0.0
  9
$UCSXDIR
 10
1.0
 20
0.0
 30
0.0
  9
$UCSYDIR
 10
0.0
 20
1.0
 30
0.0
  9
$UCSORTHOREF
  2

  9
$UCSORTHOVIEW
 70
     0
  9
$UCSORGTOP
 10
0.0
 20
0.0
 30
0.0
  9
$UCSORGBOTTOM
 10
0.0
 20
0.0
 30
0.0
  9
$UCSORGLEFT
 10
0.0
 20
0.0
 30
0.0
  9
$UCSORGRIGHT
 10
0.0
 20
0.0
 30
0.0
  9
$UCSORGFRONT
 10
0.0
 20
0.0
 30
0.0
  9
$UCSORGBACK
 10
0.0
 20
0.0
 30
0.0
  9
$PUCSBASE
  2

  9
$PUCSNAME
  2

  9
$PUCSORG
 10
0.0
 20
0.0
 30
0.0
  9
$PUCSXDIR
 10
1.0
 20
0.0
 30
0.0
  9
$PUCSYDIR
 10
0.0
 20
1.0
 30
0.0
  9
$PUCSORTHOREF
  2

  9
$PUCSORTHOVIEW
 70
     0
  9
$PUCSORGTOP
 10
0.0
 20
0.0
 30
0.0
  9
$PUCSORGBOTTOM
 10
0.0
 20
0.0
 30
0.0
  9
$PUCSORGLEFT
 10
0.0
 20
0.0
 30
0.0
  9
$PUCSORGRIGHT
 10
0.0
 20
0.0
 30
0.0
  9
$PUCSORGFRONT
 10
0.0
 20
0.0
 30
0.0
  9
$PUCSORGBACK
 10
0.0
 20
0.0
 30
0.0
  9
$USERI1
 70
     0
  9
$USERI2
 70
     0
  9
$USERI3
 70
     0
  9
$USERI4
 70
     0
  9
$USERI5
 70
     0
  9
$USERR1
 40
0.0
  9
$USERR2
 40
0.0
  9
$USERR3
 40
0.0
  9
$USERR4
 40
0.0
  9
$USERR5
 40
0.0
  9
$WORLDVIEW
 70
     1
  9
$SHADEDGE
 70
     3
  9
$SHADEDIF
 70
    70
  9
$TILEMODE
 70
     1
  9
$MAXACTVP
 70
    64
  9
$PINSBASE
 10
0.0
 20
0.0
 30
0.0
  9
$PLIMCHECK
 70
     0
  9
$PEXTMIN
 10
1.000000000000E+20
 20
1.000000000000E+20
 30
1.000000000000E+20
  9
$PEXTMAX
 10
-1.000000000000E+20
 20
-1.000000000000E+20
 30
-1.000000000000E+20
  9
$PLIMMIN
 10
0.0
 20
0.0
  9
$PLIMMAX
 10
420.0
 20
297.0
  9
$UNITMODE
 70
     0
  9
$VISRETAIN
 70
     1
  9
$PLINEGEN
 70
     0
  9
$PSLTSCALE
 70
     1
  9
$TREEDEPTH
 70
  3020
  9
$CMLSTYLE
  2
Standard
  9
$CMLJUST
 70
     0
  9
$CMLSCALE
 40
20.0
  9
$PROXYGRAPHICS
 70
     1
  9
$MEASUREMENT
 70
     1
  9
$CELWEIGHT
370
    -1
  9
$ENDCAPS
280
     0
  9
$JOINSTYLE
280
     0
  9
$LWDISPLAY
290
     0
  9
$INSUNITS
 70
     4
  9
$HYPERLINKBASE
  1

  9
$STYLESHEET
  1

  9
$XEDIT
290
     1
  9
$CEPSNTYPE
380
     0
  9
$PSTYLEMODE
290
     1
  9
$FINGERPRINTGUID
  2
{1d3975d5-8670-4fb4-9584-0263b3654f55}
  9
$VERSIONGUID
  2
{FAEB1C32-E019-11D5-929B-00C0DF256EC4}
  9
$EXTNAMES
290
     1
  9
$PSVPSCALE
 40
0.0
  9
$OLESTARTUP
290
     0
  9
$SORTENTS
280
   127
  9
$INDEXCTL
280
     0
  9
$HIDETEXT
280
     1
  9
$XCLIPFRAME
280
     2
  9
$HALOGAP
280
     0
  9
$OBSCOLOR
 70
   257
  9
$OBSLTYPE
280
     0
  9
$INTERSECTIONDISPLAY
280
     0
  9
$INTERSECTIONCOLOR
 70
   257
  9
$DIMASSOC
280
     2
  9
$PROJECTNAME
  1

  9
$CAMERADISPLAY
290
     0
  9
$LENSLENGTH
 40
50.0
  9
$CAMERAHEIGHT
 40
0.0
  9
$STEPSPERSEC
 40
2.0
  9
$STEPSIZE
 40
6.0
  9
$3DDWFPREC
 40
2.0
  9
$PSOLWIDTH
 40
5.0
  9
$PSOLHEIGHT
 40
80.0
  9
$LOFTANG1
 40
1.570796326795
  9
$LOFTANG2
 40
1.570796326795
  9
$LOFTMAG1
 40
0.0
  9
$LOFTMAG2
 40
0.0
  9
$LOFTPARAM
 70
     7
  9
$LOFTNORMALS
280
     1
  9
$LATITUDE
 40
37.795
  9
$LONGITUDE
 40
-122.394
  9
$NORTHDIRECTION
 40
0.0
  9
$TIMEZONE
 70
 -8000
  9
$LIGHTGLYPHDISPLAY
280
     1
  9
$TILEMODELIGHTSYNCH
280
     1
  9
$CMATERIAL
347
44
  9
$SOLIDHIST
280
     0
  9
$SHOWHIST
280
     1
  9
$DWFFRAME
280
     2
  9
$DGNFRAME
280
     2
  9
$REALWORLDSCALE
290
     1
  9
$INTERFERECOLOR
 62
   256
  9
$CSHADOW
280
     0
  9
$SHADOWPLANELOCATION
 40
0.0
  0
ENDSEC
  0
SECTION
  2
CLASSES
  0
CLASS
  1
ACDBDICTIONARYWDFLT
  2
AcDbDictionaryWithDefault
  3
ObjectDBX Classes
 90
        0
 91
        3
280
     0
281
     0
  0
CLASS
  1
VISUALSTYLE
  2
AcDbVisualStyle
  3
ObjectDBX Classes
 90
     4095
 91
        3
280
     0
281
     0
  0
CLASS
  1
MATERIAL
  2
AcDbMaterial
  3
ObjectDBX Classes
 90
     1153
 91
        3
280
     0
281
     0
  0
CLASS
  1
SCALE
  2
AcDbScale
  3
ObjectDBX Classes
 90
     1153
 91
        3
280
     0
281
     0
  0
CLASS
  1
TABLESTYLE
  2
AcDbTableStyle
  3
ObjectDBX Classes
 90
     4095
 91
        3
280
     0
281
     0
  0
CLASS
  1
MLEADERSTYLE
  2
AcDbMLeaderStyle
  3
ACDB_MLEADERSTYLE_CLASS
 90
     4095
 91
        3
280
     0
281
     0
  0
CLASS
  1
SUN
  2
AcDbSun
  3
SCENEOE
 90
     1153
 91
        3
280
     0
281
     0
  0
CLASS
  1
DICTIONARYVAR
  2
AcDbDictionaryVar
  3
ObjectDBX Classes
 90
        0
 91
        3
280
     0
281
     0
  0
CLASS
  1
CELLSTYLEMAP
  2
AcDbCellStyleMap
  3
ObjectDBX Classes
 90
     1152
 91
        3
280
     0
281
     0
  0
CLASS
  1
WIPEOUTVARIABLES
  2
AcDbWipeoutVariables
  3
WipeOut|AutoCAD Express Tool|expresstools@autodesk.com
 90
        0
 91
        3
280
     0
281
     0
  0
ENDSEC
  0
SECTION
  2
TABLES
  0
TABLE
  2
VPORT
  5
8
330
0
100
AcDbSymbolTable
 70
     1
  0
VPORT
  5
29
330
8
100
AcDbSymbolTableRecord
100
AcDbViewportTableRecord
  2
*Active
 70
     0
 10
0.0
 20
0.0
 11
1.0
 21
1.0
 12
-150.16453138137
 22
-5.437904938554
 13
0.0
 23
0.0
 14
10.0
 24
10.0
 15
10.0
 25
10.0
 16
0.0
 26
0.0
 36
1.0
 17
0.0
 27
0.0
 37
0.0
 40
302.841499581238
 41
2.291761225482
 42
50.0
 43
0.0
 44
0.0
 50
0.0
 51
0.0
 71
     0
 72
   100
 73
     1
 74
     3
 75
     0
 76
     0
 77
     0
 78
     0
281
     0
 65
     1
110
0.0
120
0.0
130
0.0
111
1.0
121
0.0
131
0.0
112
0.0
122
1.0
132
0.0
 79
     0
146
0.0
348
2F
 60
     3
 61
     5
292
     1
282
     1
141
0.0
142
0.0
 63
   250
361
6D
  0
ENDTAB
  0
TABLE
  2
LTYPE
  5
5
330
0
100
AcDbSymbolTable
 70
     3
  0
LTYPE
  5
14
330
5
100
AcDbSymbolTableRecord
100
AcDbLinetypeTableRecord
  2
ByBlock
 70
     0
  3

 72
    65
 73
     0
 40
0.0
  0
LTYPE
  5
15
330
5
100
AcDbSymbolTableRecord
100
AcDbLinetypeTableRecord
  2
ByLayer
 70
     0
  3

 72
    65
 73
     0
 40
0.0
  0
LTYPE
  5
16
330
5
100
AcDbSymbolTableRecord
100
AcDbLinetypeTableRecord
  2
Continuous
 70
     0
  3
Solid line
 72
    65
 73
     0
 40
0.0
  0
LTYPE
  5
6E
330
5
100
AcDbSymbolTableRecord
100
AcDbLinetypeTableRecord
  2
AUSGEZOGEN
 70
     0
  3

 72
    65
 73
     0
 40
0.0
  0
LTYPE
  5
6F
330
5
100
AcDbSymbolTableRecord
100
AcDbLinetypeTableRecord
  2
DASHED
 70
     0
  3

 72
    65
 73
     2
 40
0.75
 49
0.5
 74
     0
 49
-0.25
 74
     0
  0
ENDTAB
  0
TABLE
  2
LAYER
  5
2
330
0
100
AcDbSymbolTable
 70
     2
  0
LAYER
  5
10
330
2
100
AcDbSymbolTableRecord
100
AcDbLayerTableRecord
  2
0
 70
     0
 62
     7
  6
Continuous
370
    -3
390
F
347
46
  0
LAYER
  5
71
330
2
100
AcDbSymbolTableRecord
100
AcDbLayerTableRecord
  2
FREI LASSEN
 70
     0
 62
    18
420
        0
  6
Continuous
370
    -3
390
F
347
46
  0
ENDTAB
  0
TABLE
  2
STYLE
  5
3
330
0
100
AcDbSymbolTable
 70
     2
  0
STYLE
  5
11
330
3
100
AcDbSymbolTableRecord
100
AcDbTextStyleTableRecord
  2
Standard
 70
     0
 40
0.0
 41
1.0
 50
0.0
 71
     0
 42
2.5
  3
txt
  4

  0
STYLE
  5
70
330
3
100
AcDbSymbolTableRecord
100
AcDbTextStyleTableRecord
  2
Toleranzfont
 70
     0
 40
0.0
 41
1.0
 50
0.0
 71
     0
 42
2.5
  3
IGES1003.SHX
  4

  0
ENDTAB
  0
TABLE
  2
VIEW
  5
6
330
0
100
AcDbSymbolTable
 70
     0
  0
ENDTAB
  0
TABLE
  2
UCS
  5
7
330
0
100
AcDbSymbolTable
 70
     0
  0
ENDTAB
  0
TABLE
  2
APPID
  5
9
330
0
100
AcDbSymbolTable
 70
     1
  0
APPID
  5
12
330
9
100
AcDbSymbolTableRecord
100
AcDbRegAppTableRecord
  2
ACAD
 70
     0
  0
ENDTAB
  0
TABLE
  2
DIMSTYLE
  5
A
330
0
100
AcDbSymbolTable
 70
     1
100
AcDbDimStyleTable
  0
DIMSTYLE
105
27
330
A
100
AcDbSymbolTableRecord
100
AcDbDimStyleTableRecord
  2
ISO-25
 70
     0
 41
2.5
 42
0.625
 43
3.75
 44
1.25
 73
     0
 74
     0
 77
     1
 78
     8
140
2.5
141
2.5
143
0.03937007874
147
0.625
171
     3
172
     1
178
     0
271
     2
272
     2
274
     3
278
    44
283
     0
284
     8
340
11
  0
ENDTAB
  0
TABLE
  2
BLOCK_RECORD
  5
1
330
0
100
AcDbSymbolTable
 70
     7
  0
BLOCK_RECORD
  5
1F
330
1
100
AcDbSymbolTableRecord
100
AcDbBlockTableRecord
  2
*Model_Space
340
22
 70
     0
280
     1
281
     0
  0
BLOCK_RECORD
  5
1B
330
1
100
AcDbSymbolTableRecord
100
AcDbBlockTableRecord
  2
*Paper_Space
340
1E
 70
     0
280
     1
281
     0
  0
BLOCK_RECORD
  5
23
330
1
100
AcDbSymbolTableRecord
100
AcDbBlockTableRecord
  2
*Paper_Space0
340
26
 70
     0
280
     1
281
     0
  0
BLOCK_RECORD
  5
7F
330
1
100
AcDbSymbolTableRecord
100
AcDbBlockTableRecord
  2
DICHTR114_nNn00
340
0
102
{BLKREFS
331
9C
102
}
 70
     0
280
     1
281
     0
  0
BLOCK_RECORD
  5
106
330
1
100
AcDbSymbolTableRecord
100
AcDbBlockTableRecord
  2
DICHTR114_nNn01
340
0
102
{BLKREFS
331
219
102
}
 70
     0
280
     1
281
     0
  0
BLOCK_RECORD
  5
122
330
1
100
AcDbSymbolTableRecord
100
AcDbBlockTableRecord
  2
*X3
340
0
102
{BLKREFS
331
218
102
}
 70
     0
280
     1
281
     0
  0
BLOCK_RECORD
  5
21A
330
1
100
AcDbSymbolTableRecord
100
AcDbBlockTableRecord
  2
*X4
340
0
102
{BLKREFS
331
221
102
}
 70
     0
280
     1
281
     0
  0
BLOCK_RECORD
  5
228
330
1
100
AcDbSymbolTableRecord
100
AcDbBlockTableRecord
  2
Montagefuss Typ 200 G (25mm)_001_001_nNn04
340
0
102
{BLKREFS
331
236
102
}
 70
     0
280
     1
281
     0
  0
BLOCK_RECORD
  5
23C
330
1
100
AcDbSymbolTableRecord
100
AcDbBlockTableRecord
  2
Montagefuss Typ 200 G (25mm)_001_001_nNn05
340
0
102
{BLKREFS
331
24A
102
}
 70
     0
280
     1
281
     0
  0
ENDTAB
  0
ENDSEC
  0
SECTION
  2
BLOCKS
  0
BLOCK
  5
20
330
1F
100
AcDbEntity
  8
0
100
AcDbBlockBegin
  2
*Model_Space
 70
     0
 10
0.0
 20
0.0
 30
0.0
  3
*Model_Space
  1

  0
ENDBLK
  5
21
330
1F
100
AcDbEntity
  8
0
100
AcDbBlockEnd
  0
BLOCK
  5
1C
330
1B
100
AcDbEntity
 67
     1
  8
0
100
AcDbBlockBegin
  2
*Paper_Space
 70
     0
 10
0.0
 20
0.0
 30
0.0
  3
*Paper_Space
  1

  0
ENDBLK
  5
1D
330
1B
100
AcDbEntity
 67
     1
  8
0
100
AcDbBlockEnd
  0
BLOCK
  5
24
330
23
100
AcDbEntity
  8
0
100
AcDbBlockBegin
  2
*Paper_Space0
 70
     0
 10
0.0
 20
0.0
 30
0.0
  3
*Paper_Space0
  1

  0
ENDBLK
  5
25
330
23
100
AcDbEntity
  8
0
100
AcDbBlockEnd
  0
BLOCK
  5
80
330
7F
100
AcDbEntity
  8
0
100
AcDbBlockBegin
  2
DICHTR114_nNn00
 70
     0
 10
0.0
 20
0.0
 30
0.0
  3
DICHTR114_nNn00
  1

  0
LINE
  5
82
330
7F
100
AcDbEntity
  8
FREI LASSEN
  6
AUSGEZOGEN
 62
    18
420
        0
370
    18
100
AcDbLine
 10
-215.972131436625
 20
27.956707607315
 30
0.0
 11
-210.128490101833
 21
27.956707607315
 31
0.0
  0
LINE
  5
83
330
7F
100
AcDbEntity
  8
FREI LASSEN
  6
AUSGEZOGEN
 62
    18
420
        0
370
    18
100
AcDbLine
 10
-216.53342875914
 20
28.715201451864
 30
0.0
 11
-216.567646638367
 21
34.115093037511
 31
0.0
  0
LINE
  5
84
330
7F
100
AcDbEntity
  8
FREI LASSEN
  6
AUSGEZOGEN
 62
    18
420
        0
370
    18
100
AcDbLine
 10
-210.10947800188
 20
24.955832266975
 30
0.0
 11
-210.980186462712
 21
24.950314786395
 31
0.0
  0
LINE
  5
85
330
7F
100
AcDbEntity
  8
FREI LASSEN
  6
AUSGEZOGEN
 62
    18
420
        0
370
    18
100
AcDbLine
 10
-207.522897648233
 20
34.972423607053
 30
0.0
 11
-215.772732015194
 21
34.920146291567
 31
0.0
  0
LINE
  5
86
330
7F
100
AcDbEntity
  8
FREI LASSEN
  6
AUSGEZOGEN
 62
    18
420
        0
370
    18
100
AcDbLine
 10
-210.10947800188
 20
24.955832266975
 30
0.0
 11
-210.128487934784
 21
27.955772036779
 31
0.0
  0
LINE
  5
87
330
7F
100
AcDbEntity
  8
FREI LASSEN
  6
AUSGEZOGEN
 62
    18
420
        0
370
    18
100
AcDbLine
 10
-207.973967535787
 20
27.249224050938
 30
0.0
 11
-207.982966750769
 21
28.669381768314
 31
0.0
  0
LINE
  5
88
330
7F
100
AcDbEntity
  8
FREI LASSEN
  6
AUSGEZOGEN
 62
    18
420
        0
370
    18
100
AcDbLine
 10
-207.484877782425
 20
28.972544067445
 30
0.0
 11
-207.684873767079
 21
28.971276738585
 31
0.0
  0
LINE
  5
89
330
7F
100
AcDbEntity
  8
FREI LASSEN
  6
AUSGEZOGEN
 62
    18
420
        0
370
    18
100
AcDbLine
 10
-207.497551071028
 20
30.972503913981
 30
0.0
 11
-207.547550067191
 21
30.972187081766
 31
0.0
  0
LINE
  5
8A
330
7F
100
AcDbEntity
  8
FREI LASSEN
  6
AUSGEZOGEN
 62
    18
420
        0
370
    18
100
AcDbLine
 10
-207.51022435963
 20
32.972463760517
 30
0.0
 11
-207.560223355794
 21
32.972146928302
 31
0.0
  0
ARC
  5
8B
330
7F
100
AcDbEntity
  8
FREI LASSEN
  6
AUSGEZOGEN
 62
    18
420
        0
370
    18
100
AcDbCircle
 10
-207.516561003932
 20
33.972443683785
 30
0.0
 40
0.9999999999999999
100
AcDbArc
 50
0.363065404467
 51
90.363065404467
  0
ARC
  5
8C
330
7F
100
AcDbEntity
  8
FREI LASSEN
  6
AUSGEZOGEN
 62
    18
420
        0
370
    18
100
AcDbCircle
 10
-207.516561003932
 20
33.972443683785
 30
0.0
 40
0.9999999999999999
100
AcDbArc
 50
270.363065404467
 51
0.363065404467
  0
ARC
  5
8D
330
7F
100
AcDbEntity
  8
FREI LASSEN
  6
AUSGEZOGEN
 62
    18
420
        0
370
    18
100
AcDbCircle
 10
-207.491214426726
 20
29.972523990713
 30
0.0
 40
0.9999999999999999
100
AcDbArc
 50
0.363065404467
 51
90.363065404467
  0
ARC
  5
8E
330
7F
100
AcDbEntity
  8
FREI LASSEN
  6
AUSGEZOGEN
 62
    18
420
        0
370
    18
100
AcDbCircle
 10
-207.491214426726
 20
29.972523990713
 30
0.0
 40
0.9999999999999999
100
AcDbArc
 50
270.363065404467
 51
0.363065404467
  0
ARC
  5
8F
330
7F
100
AcDbEntity
  8
FREI LASSEN
  6
AUSGEZOGEN
 62
    18
420
        0
370
    18
100
AcDbCircle
 10
-207.553886711492
 20
31.972167005034
 30
0.0
 40
0.9999999999999999
100
AcDbArc
 50
90.363065404467
 51
180.363065404467
  0
ARC
  5
90
330
7F
100
AcDbEntity
  8
FREI LASSEN
  6
AUSGEZOGEN
 62
    18
420
        0
370
    18
100
AcDbCircle
 10
-207.553886711492
 20
31.972167005034
 30
0.0
 40
0.9999999999999999
100
AcDbArc
 50
180.363065404467
 51
270.363065404467
  0
LINE
  5
91
330
7F
100
AcDbEntity
  8
FREI LASSEN
  6
AUSGEZOGEN
 62
    18
420
        0
370
    18
100
AcDbLine
 10
-208.461928062038
 20
21.966212183111
 30
0.0
 11
-209.323031365132
 21
21.960755568221
 31
0.0
  0
ARC
  5
92
330
7F
100
AcDbEntity
  8
FREI LASSEN
  6
AUSGEZOGEN
 62
    18
420
        0
370
    18
100
AcDbCircle
 10
-208.940491157218
 20
21.963179638117
 30
0.0
 40
0.9999999999999999
100
AcDbArc
 50
210.363065404467
 51
345.363065404467
  0
LINE
  5
93
330
7F
100
AcDbEntity
  8
FREI LASSEN
  6
AUSGEZOGEN
 62
    18
420
        0
370
    18
100
AcDbLine
 10
-209.803330851892
 20
21.457701981544
 30
0.0
 11
-211.408437987898
 21
24.197585996474
 31
0.0
  0
LINE
  5
94
330
7F
100
AcDbEntity
  8
FREI LASSEN
  6
AUSGEZOGEN
 62
    18
420
        0
370
    18
100
AcDbLine
 10
-207.972944679336
 20
21.710486517638
 30
0.0
 11
-206.926516004993
 21
25.717197805603
 31
0.0
  0
ARC
  5
95
330
7F
100
AcDbEntity
  8
FREI LASSEN
  6
AUSGEZOGEN
 62
    18
420
        0
370
    18
100
AcDbCircle
 10
-207.894062482875
 20
25.969890926082
 30
0.0
 40
0.9999999999999999
100
AcDbArc
 50
345.363065404467
 51
80.252926032669
  0
ARC
  5
96
330
7F
100
AcDbEntity
  8
FREI LASSEN
  6
AUSGEZOGEN
 62
    18
420
        0
370
    18
100
AcDbCircle
 10
-210.977018140562
 20
24.450324824761
 30
0.0
 40
0.4999999999999999
100
AcDbArc
 50
90.363065404467
 51
210.363065404467
  0
ARC
  5
97
330
7F
100
AcDbEntity
  8
FREI LASSEN
  6
AUSGEZOGEN
 62
    18
420
        0
370
    18
100
AcDbCircle
 10
-215.733444820526
 20
28.720270767306
 30
0.0
 40
0.8000000000000002
100
AcDbArc
 50
180.363065404467
 51
270.363065404467
  0
ARC
  5
98
330
7F
100
AcDbEntity
  8
FREI LASSEN
  6
AUSGEZOGEN
 62
    18
420
        0
370
    18
100
AcDbCircle
 10
-215.767662699753
 20
34.120162352953
 30
0.0
 40
0.8000000000000002
100
AcDbArc
 50
90.363065404467
 51
180.363065404467
  0
ARC
  5
99
330
7F
100
AcDbEntity
  8
FREI LASSEN
  6
AUSGEZOGEN
 62
    18
420
        0
370
    18
100
AcDbCircle
 10
-207.682972773788
 20
28.671282761604
 30
0.0
 40
0.2999999999999999
100
AcDbArc
 50
90.363065404467
 51
180.363065404467
  0
ARC
  5
9A
330
7F
100
AcDbEntity
  8
FREI LASSEN
  6
AUSGEZOGEN
 62
    18
420
        0
370
    18
100
AcDbCircle
 10
-207.673973558807
 20
27.251125044229
 30
0.0
 40
0.2999999999999999
100
AcDbArc
 50
180.363065404467
 51
260.252926032668
  0
HATCH
  5
9B
330
7F
100
AcDbEntity
  8
FREI LASSEN
  6
AUSGEZOGEN
 62
    18
420
        0
370
    18
100
AcDbHatch
 10
0.0
 20
0.0
 30
0.0
210
0.0
220
0.0
230
1.0
  2
MegaCAD_Biegsam
 70
     0
 71
     0
 91
        1
 92
        2
 72
     1
 73
     1
 93
       24
 10
-215.7283755050844
 20
27.92028682869113
 42
-0.4142135623730673
 10
-216.5334287591399
 20
28.71520145186449
 42
0.0
 10
-216.5676466383671
 20
34.1150930375114
 42
-0.4142135623730669
 10
-215.7727320151938
 20
34.92014629156688
 42
0.0
 10
-207.522897648233
 20
34.97242360705275
 42
-0.414213562373107
 10
-206.5165810806638
 20
33.97878032808609
 42
-0.4142135623731067
 10
-207.5102243596304
 20
32.9724637605168
 42
0.0
 10
-207.5602233557939
 20
32.97214692830178
 42
0.4142135623731009
 10
-208.5538666347605
 20
31.96583036073247
 42
0.4142135623730832
 10
-207.5475500671911
 20
30.97218708176581
 42
0.0
 10
-207.4975510710278
 20
30.97250391398089
 42
-0.4142135623730892
 10
-206.4912345034584
 20
29.97886063501426
 42
-0.4142135623730892
 10
-207.4848777824251
 20
28.972544067445
 42
0.0
 10
-207.6848737670787
 20
28.97127673858472
 42
0.4142135623730445
 10
-207.9829667507688
 20
28.66938176831391
 42
0.0
 10
-207.9739675357872
 20
27.24922405093821
 42
0.3634260920586565
 10
-207.7247633105148
 20
26.95545563234862
 42
-0.4394370349333766
 10
-206.9265160049928
 20
25.71719780560289
 42
0.0
 10
-207.9729446793355
 20
21.710486517638
 42
-0.668178637919292
 10
-209.8033308518916
 20
21.45770198154361
 42
0.0
 10
-211.4084379878984
 20
24.1975859964744
 42
-0.5773502691896589
 10
-210.9801864627122
 20
24.95031478639521
 42
0.0
 10
-210.1094780018799
 20
24.95583226697465
 42
0.0
 10
-210.1284879347839
 20
27.95577203677851
 42
0.0
 97
        0
 75
     0
 76
     1
 52
-179.636934595533
 41
0.3
 77
     0
 78
     2
 53
-179.6369345955333
 43
0.0
 44
0.0
 45
0.0047524832259888
 46
-0.7499849424509711
 79
     2
 49
0.7499999999999998
 49
-0.7499999999999998
 53
-134.6369345955333
 43
-0.749984942450971
 44
-0.0047524832259888
 45
0.0047524833524345
 46
-0.7499849624052501
 79
     4
 49
0.2121321
 49
-0.6363959999999999
 49
0.2121321
 49
-1.0606602
 98
        0
  0
ENDBLK
  5
81
330
7F
100
AcDbEntity
  8
0
100
AcDbBlockEnd
  0
BLOCK
  5
107
330
106
100
AcDbEntity
  8
0
100
AcDbBlockBegin
  2
DICHTR114_nNn01
 70
     0
 10
0.0
 20
0.0
 30
0.0
  3
DICHTR114_nNn01
  1

  0
LINE
  5
109
330
106
100
AcDbEntity
  8
FREI LASSEN
  6
AUSGEZOGEN
 62
    18
420
        0
370
    18
100
AcDbLine
 10
-84.421569350776
 20
27.956707607315
 30
0.0
 11
-90.265210685569
 21
27.956707607315
 31
0.0
  0
LINE
  5
10A
330
106
100
AcDbEntity
  8
FREI LASSEN
  6
AUSGEZOGEN
 62
    18
420
        0
370
    18
100
AcDbLine
 10
-83.860272028262
 20
28.715201451864
 30
0.0
 11
-83.826054149035
 21
34.115093037511
 31
0.0
  0
LINE
  5
10B
330
106
100
AcDbEntity
  8
FREI LASSEN
  6
AUSGEZOGEN
 62
    18
420
        0
370
    18
100
AcDbLine
 10
-90.284222785522
 20
24.955832266975
 30
0.0
 11
-89.413514324689
 21
24.950314786395
 31
0.0
  0
LINE
  5
10C
330
106
100
AcDbEntity
  8
FREI LASSEN
  6
AUSGEZOGEN
 62
    18
420
        0
370
    18
100
AcDbLine
 10
-92.870803139169
 20
34.972423607053
 30
0.0
 11
-84.620968772208
 21
34.920146291567
 31
0.0
  0
LINE
  5
10D
330
106
100
AcDbEntity
  8
FREI LASSEN
  6
AUSGEZOGEN
 62
    18
420
        0
370
    18
100
AcDbLine
 10
-90.284222785522
 20
24.955832266975
 30
0.0
 11
-90.265212852618
 21
27.955772036779
 31
0.0
  0
LINE
  5
10E
330
106
100
AcDbEntity
  8
FREI LASSEN
  6
AUSGEZOGEN
 62
    18
420
        0
370
    18
100
AcDbLine
 10
-92.419733251614
 20
27.249224050938
 30
0.0
 11
-92.410734036633
 21
28.669381768314
 31
0.0
  0
LINE
  5
10F
330
106
100
AcDbEntity
  8
FREI LASSEN
  6
AUSGEZOGEN
 62
    18
420
        0
370
    18
100
AcDbLine
 10
-92.908823004976
 20
28.972544067445
 30
0.0
 11
-92.708827020323
 21
28.971276738585
 31
0.0
  0
LINE
  5
110
330
106
100
AcDbEntity
  8
FREI LASSEN
  6
AUSGEZOGEN
 62
    18
420
        0
370
    18
100
AcDbLine
 10
-92.896149716374
 20
30.972503913981
 30
0.0
 11
-92.84615072021
 21
30.972187081766
 31
0.0
  0
LINE
  5
111
330
106
100
AcDbEntity
  8
FREI LASSEN
  6
AUSGEZOGEN
 62
    18
420
        0
370
    18
100
AcDbLine
 10
-92.883476427771
 20
32.972463760517
 30
0.0
 11
-92.833477431608
 21
32.972146928302
 31
0.0
  0
ARC
  5
112
330
106
100
AcDbEntity
  8
FREI LASSEN
  6
AUSGEZOGEN
 62
    18
420
        0
370
    18
100
AcDbCircle
 10
-92.87713978347
 20
33.972443683785
 30
0.0
 40
0.9999999999999999
100
AcDbArc
 50
89.636934595533
 51
179.636934595533
  0
ARC
  5
113
330
106
100
AcDbEntity
  8
FREI LASSEN
  6
AUSGEZOGEN
 62
    18
420
        0
370
    18
100
AcDbCircle
 10
-92.87713978347
 20
33.972443683785
 30
0.0
 40
0.9999999999999999
100
AcDbArc
 50
179.636934595533
 51
269.636934595533
  0
ARC
  5
114
330
106
100
AcDbEntity
  8
FREI LASSEN
  6
AUSGEZOGEN
 62
    18
420
        0
370
    18
100
AcDbCircle
 10
-92.902486360675
 20
29.972523990713
 30
0.0
 40
0.9999999999999999
100
AcDbArc
 50
89.636934595533
 51
179.636934595533
  0
ARC
  5
115
330
106
100
AcDbEntity
  8
FREI LASSEN
  6
AUSGEZOGEN
 62
    18
420
        0
370
    18
100
AcDbCircle
 10
-92.902486360675
 20
29.972523990713
 30
0.0
 40
0.9999999999999999
100
AcDbArc
 50
179.636934595533
 51
269.636934595533
  0
ARC
  5
116
330
106
100
AcDbEntity
  8
FREI LASSEN
  6
AUSGEZOGEN
 62
    18
420
        0
370
    18
100
AcDbCircle
 10
-92.839814075909
 20
31.972167005034
 30
0.0
 40
0.9999999999999999
100
AcDbArc
 50
359.636934595533
 51
89.636934595533
  0
ARC
  5
117
330
106
100
AcDbEntity
  8
FREI LASSEN
  6
AUSGEZOGEN
 62
    18
420
        0
370
    18
100
AcDbCircle
 10
-92.839814075909
 20
31.972167005034
 30
0.0
 40
0.9999999999999999
100
AcDbArc
 50
269.636934595533
 51
359.636934595533
  0
LINE
  5
118
330
106
100
AcDbEntity
  8
FREI LASSEN
  6
AUSGEZOGEN
 62
    18
420
        0
370
    18
100
AcDbLine
 10
-91.931772725364
 20
21.966212183111
 30
0.0
 11
-91.07066942227
 21
21.960755568221
 31
0.0
  0
ARC
  5
119
330
106
100
AcDbEntity
  8
FREI LASSEN
  6
AUSGEZOGEN
 62
    18
420
        0
370
    18
100
AcDbCircle
 10
-91.453209630184
 20
21.963179638117
 30
0.0
 40
0.9999999999999999
100
AcDbArc
 50
194.636934595533
 51
329.636934595533
  0
LINE
  5
11A
330
106
100
AcDbEntity
  8
FREI LASSEN
  6
AUSGEZOGEN
 62
    18
420
        0
370
    18
100
AcDbLine
 10
-90.59036993551
 20
21.457701981544
 30
0.0
 11
-88.985262799503
 21
24.197585996474
 31
0.0
  0
LINE
  5
11B
330
106
100
AcDbEntity
  8
FREI LASSEN
  6
AUSGEZOGEN
 62
    18
420
        0
370
    18
100
AcDbLine
 10
-92.420756108066
 20
21.710486517638
 30
0.0
 11
-93.467184782409
 21
25.717197805603
 31
0.0
  0
ARC
  5
11C
330
106
100
AcDbEntity
  8
FREI LASSEN
  6
AUSGEZOGEN
 62
    18
420
        0
370
    18
100
AcDbCircle
 10
-92.499638304526
 20
25.969890926082
 30
0.0
 40
0.9999999999999999
100
AcDbArc
 50
99.747073967331
 51
194.636934595533
  0
ARC
  5
11D
330
106
100
AcDbEntity
  8
FREI LASSEN
  6
AUSGEZOGEN
 62
    18
420
        0
370
    18
100
AcDbCircle
 10
-89.41668264684
 20
24.450324824761
 30
0.0
 40
0.4999999999999999
100
AcDbArc
 50
329.636934595533
 51
89.636934595533
  0
ARC
  5
11E
330
106
100
AcDbEntity
  8
FREI LASSEN
  6
AUSGEZOGEN
 62
    18
420
        0
370
    18
100
AcDbCircle
 10
-84.660255966876
 20
28.720270767306
 30
0.0
 40
0.8000000000000002
100
AcDbArc
 50
269.636934595533
 51
359.636934595533
  0
ARC
  5
11F
330
106
100
AcDbEntity
  8
FREI LASSEN
  6
AUSGEZOGEN
 62
    18
420
        0
370
    18
100
AcDbCircle
 10
-84.626038087649
 20
34.120162352953
 30
0.0
 40
0.8000000000000002
100
AcDbArc
 50
359.636934595533
 51
89.636934595533
  0
ARC
  5
120
330
106
100
AcDbEntity
  8
FREI LASSEN
  6
AUSGEZOGEN
 62
    18
420
        0
370
    18
100
AcDbCircle
 10
-92.710728013613
 20
28.671282761604
 30
0.0
 40
0.2999999999999999
100
AcDbArc
 50
359.636934595533
 51
89.636934595533
  0
ARC
  5
121
330
106
100
AcDbEntity
  8
FREI LASSEN
  6
AUSGEZOGEN
 62
    18
420
        0
370
    18
100
AcDbCircle
 10
-92.719727228595
 20
27.251125044229
 30
0.0
 40
0.2999999999999999
100
AcDbArc
 50
279.747073967332
 51
359.636934595533
  0
INSERT
  5
218
330
106
100
AcDbEntity
  8
0
100
AcDbBlockReference
  2
*X3
 10
0.0
 20
0.0
 30
0.0
  0
ENDBLK
  5
108
330
106
100
AcDbEntity
  8
0
100
AcDbBlockEnd
  0
BLOCK
  5
123
330
122
100
AcDbEntity
  8
0
100
AcDbBlockBegin
  2
*X3
 70
     1
 10
0.0
 20
0.0
 30
0.0
  3
*X3
  1

  0
LINE
  5
125
330
122
100
AcDbEntity
  8
FREI LASSEN
  6
AUSGEZOGEN
 62
    18
420
        0
370
    18
100
AcDbLine
 10
-91.966486447993
 20
21.104956527091
 30
0.0
 11
-91.445387401867
 21
21.101654441495
 31
0.0
  0
LINE
  5
126
330
122
100
AcDbEntity
  8
FREI LASSEN
  6
AUSGEZOGEN
 62
    18
420
        0
370
    18
100
AcDbLine
 10
-92.190619861092
 20
21.856391867172
 30
0.0
 11
-91.440634918641
 21
21.851639383946
 31
0.0
  0
LINE
  5
127
330
122
100
AcDbEntity
  8
FREI LASSEN
  6
AUSGEZOGEN
 62
    18
420
        0
370
    18
100
AcDbLine
 10
-90.69064997619
 20
21.84688690072
 30
0.0
 11
-90.363587753036
 21
21.844814382138
 31
0.0
  0
LINE
  5
128
330
122
100
AcDbEntity
  8
FREI LASSEN
  6
AUSGEZOGEN
 62
    18
420
        0
370
    18
100
AcDbLine
 10
-92.185867377866
 20
22.606376809623
 30
0.0
 11
-91.435882435415
 21
22.601624326397
 31
0.0
  0
LINE
  5
129
330
122
100
AcDbEntity
  8
FREI LASSEN
  6
AUSGEZOGEN
 62
    18
420
        0
370
    18
100
AcDbLine
 10
-90.685897492964
 20
22.596871843171
 30
0.0
 11
-89.935912550513
 21
22.592119359945
 31
0.0
  0
LINE
  5
12A
330
122
100
AcDbEntity
  8
FREI LASSEN
  6
AUSGEZOGEN
 62
    18
420
        0
370
    18
100
AcDbLine
 10
-92.18111489464
 20
23.356361752074
 30
0.0
 11
-91.431129952189
 21
23.351609268848
 31
0.0
  0
LINE
  5
12B
330
122
100
AcDbEntity
  8
FREI LASSEN
  6
AUSGEZOGEN
 62
    18
420
        0
370
    18
100
AcDbLine
 10
-90.681145009738
 20
23.346856785622
 30
0.0
 11
-89.931160067287
 21
23.342104302396
 31
0.0
  0
LINE
  5
12C
330
122
100
AcDbEntity
  8
FREI LASSEN
  6
AUSGEZOGEN
 62
    18
420
        0
370
    18
100
AcDbLine
 10
-93.047922855951
 20
24.11186957393
 30
0.0
 11
-92.926347353865
 21
24.111099177751
 31
0.0
  0
LINE
  5
12D
330
122
100
AcDbEntity
  8
FREI LASSEN
  6
AUSGEZOGEN
 62
    18
420
        0
370
    18
100
AcDbLine
 10
-92.176362411414
 20
24.106346694525
 30
0.0
 11
-91.426377468963
 21
24.101594211299
 31
0.0
  0
LINE
  5
12E
330
122
100
AcDbEntity
  8
FREI LASSEN
  6
AUSGEZOGEN
 62
    18
420
        0
370
    18
100
AcDbLine
 10
-90.676392526512
 20
24.096841728073
 30
0.0
 11
-89.926407584061
 21
24.092089244847
 31
0.0
  0
LINE
  5
12F
330
122
100
AcDbEntity
  8
FREI LASSEN
  6
AUSGEZOGEN
 62
    18
420
        0
370
    18
100
AcDbLine
 10
-89.17642264161
 20
24.087336761621
 30
0.0
 11
-89.050318278122
 21
24.086537667081
 31
0.0
  0
LINE
  5
130
330
122
100
AcDbEntity
  8
FREI LASSEN
  6
AUSGEZOGEN
 62
    18
420
        0
370
    18
100
AcDbLine
 10
-93.24412823239
 20
24.863127940424
 30
0.0
 11
-92.921594870639
 21
24.861084120202
 31
0.0
  0
LINE
  5
131
330
122
100
AcDbEntity
  8
FREI LASSEN
  6
AUSGEZOGEN
 62
    18
420
        0
370
    18
100
AcDbLine
 10
-92.171609928188
 20
24.856331636976
 30
0.0
 11
-91.421624985737
 21
24.85157915375
 31
0.0
  0
LINE
  5
132
330
122
100
AcDbEntity
  8
FREI LASSEN
  6
AUSGEZOGEN
 62
    18
420
        0
370
    18
100
AcDbLine
 10
-90.671640043286
 20
24.846826670524
 30
0.0
 11
-89.921655100835
 21
24.842074187298
 31
0.0
  0
LINE
  5
133
330
122
100
AcDbEntity
  8
FREI LASSEN
  6
AUSGEZOGEN
 62
    18
420
        0
370
    18
100
AcDbLine
 10
-89.171670158384
 20
24.837321704072
 30
0.0
 11
-89.09952805339
 21
24.836864556035
 31
0.0
  0
LINE
  5
134
330
122
100
AcDbEntity
  8
FREI LASSEN
  6
AUSGEZOGEN
 62
    18
420
        0
370
    18
100
AcDbLine
 10
-93.440333608829
 20
25.614386306917
 30
0.0
 11
-92.916842387413
 21
25.611069062653
 31
0.0
  0
LINE
  5
135
330
122
100
AcDbEntity
  8
FREI LASSEN
  6
AUSGEZOGEN
 62
    18
420
        0
370
    18
100
AcDbLine
 10
-92.166857444962
 20
25.606316579427
 30
0.0
 11
-91.416872502511
 21
25.601564096201
 31
0.0
  0
LINE
  5
136
330
122
100
AcDbEntity
  8
FREI LASSEN
  6
AUSGEZOGEN
 62
    18
420
        0
370
    18
100
AcDbLine
 10
-90.66688756006
 20
25.596811612975
 30
0.0
 11
-90.280176574108
 21
25.594361113811
 31
0.0
  0
LINE
  5
137
330
122
100
AcDbEntity
  8
FREI LASSEN
  6
AUSGEZOGEN
 62
    18
420
        0
370
    18
100
AcDbLine
 10
-93.418588909786
 20
26.364263573579
 30
0.0
 11
-92.912089904187
 21
26.361054005104
 31
0.0
  0
LINE
  5
138
330
122
100
AcDbEntity
  8
FREI LASSEN
  6
AUSGEZOGEN
 62
    18
420
        0
370
    18
100
AcDbLine
 10
-92.162104961736
 20
26.356301521878
 30
0.0
 11
-91.412120019285
 21
26.351549038652
 31
0.0
  0
LINE
  5
139
330
122
100
AcDbEntity
  8
FREI LASSEN
  6
AUSGEZOGEN
 62
    18
420
        0
370
    18
100
AcDbLine
 10
-90.662135076834
 20
26.346796555426
 30
0.0
 11
-90.275424090882
 21
26.344346056262
 31
0.0
  0
LINE
  5
13A
330
122
100
AcDbEntity
  8
FREI LASSEN
  6
AUSGEZOGEN
 62
    18
420
        0
370
    18
100
AcDbLine
 10
-92.15735247851
 20
27.106286464329
 30
0.0
 11
-91.407367536059
 21
27.101533981103
 31
0.0
  0
LINE
  5
13B
330
122
100
AcDbEntity
  8
FREI LASSEN
  6
AUSGEZOGEN
 62
    18
420
        0
370
    18
100
AcDbLine
 10
-90.657382593608
 20
27.096781497877
 30
0.0
 11
-90.270671607656
 21
27.094330998713
 31
0.0
  0
LINE
  5
13C
330
122
100
AcDbEntity
  8
FREI LASSEN
  6
AUSGEZOGEN
 62
    18
420
        0
370
    18
100
AcDbLine
 10
-92.152599995284
 20
27.85627140678
 30
0.0
 11
-91.402615052833
 21
27.851518923554
 31
0.0
  0
LINE
  5
13D
330
122
100
AcDbEntity
  8
FREI LASSEN
  6
AUSGEZOGEN
 62
    18
420
        0
370
    18
100
AcDbLine
 10
-90.652630110382
 20
27.846766440328
 30
0.0
 11
-90.26591912443
 21
27.844315941164
 31
0.0
  0
LINE
  5
13E
330
122
100
AcDbEntity
  8
FREI LASSEN
  6
AUSGEZOGEN
 62
    18
420
        0
370
    18
100
AcDbLine
 10
-92.147847512058
 20
28.606256349231
 30
0.0
 11
-91.397862569607
 21
28.601503866005
 31
0.0
  0
LINE
  5
13F
330
122
100
AcDbEntity
  8
FREI LASSEN
  6
AUSGEZOGEN
 62
    18
420
        0
370
    18
100
AcDbLine
 10
-90.647877627156
 20
28.596751382779
 30
0.0
 11
-89.897892684705
 21
28.591998899553
 31
0.0
  0
LINE
  5
140
330
122
100
AcDbEntity
  8
FREI LASSEN
  6
AUSGEZOGEN
 62
    18
420
        0
370
    18
100
AcDbLine
 10
-89.147907742254
 20
28.587246416327
 30
0.0
 11
-88.397922799803
 21
28.582493933101
 31
0.0
  0
LINE
  5
141
330
122
100
AcDbEntity
  8
FREI LASSEN
  6
AUSGEZOGEN
 62
    18
420
        0
370
    18
100
AcDbLine
 10
-87.647937857352
 20
28.577741449875
 30
0.0
 11
-86.897952914901
 21
28.572988966649
 31
0.0
  0
LINE
  5
142
330
122
100
AcDbEntity
  8
FREI LASSEN
  6
AUSGEZOGEN
 62
    18
420
        0
370
    18
100
AcDbLine
 10
-86.14796797245
 20
28.568236483423
 30
0.0
 11
-85.397983029999
 21
28.563484000197
 31
0.0
  0
LINE
  5
143
330
122
100
AcDbEntity
  8
FREI LASSEN
  6
AUSGEZOGEN
 62
    18
420
        0
370
    18
100
AcDbLine
 10
-84.647998087548
 20
28.558731516971
 30
0.0
 11
-83.898013145097
 21
28.553979033745
 31
0.0
  0
LINE
  5
144
330
122
100
AcDbEntity
  8
FREI LASSEN
  6
AUSGEZOGEN
 62
    18
420
        0
370
    18
100
AcDbLine
 10
-93.643064913734
 20
29.365746258134
 30
0.0
 11
-92.893079971283
 21
29.360993774908
 31
0.0
  0
LINE
  5
145
330
122
100
AcDbEntity
  8
FREI LASSEN
  6
AUSGEZOGEN
 62
    18
420
        0
370
    18
100
AcDbLine
 10
-92.143095028832
 20
29.356241291682
 30
0.0
 11
-91.393110086381
 21
29.351488808456
 31
0.0
  0
LINE
  5
146
330
122
100
AcDbEntity
  8
FREI LASSEN
  6
AUSGEZOGEN
 62
    18
420
        0
370
    18
100
AcDbLine
 10
-90.64312514393
 20
29.34673632523
 30
0.0
 11
-89.893140201479
 21
29.341983842004
 31
0.0
  0
LINE
  5
147
330
122
100
AcDbEntity
  8
FREI LASSEN
  6
AUSGEZOGEN
 62
    18
420
        0
370
    18
100
AcDbLine
 10
-89.143155259028
 20
29.337231358778
 30
0.0
 11
-88.393170316577
 21
29.332478875552
 31
0.0
  0
LINE
  5
148
330
122
100
AcDbEntity
  8
FREI LASSEN
  6
AUSGEZOGEN
 62
    18
420
        0
370
    18
100
AcDbLine
 10
-87.643185374126
 20
29.327726392326
 30
0.0
 11
-86.893200431675
 21
29.3229739091
 31
0.0
  0
LINE
  5
149
330
122
100
AcDbEntity
  8
FREI LASSEN
  6
AUSGEZOGEN
 62
    18
420
        0
370
    18
100
AcDbLine
 10
-86.143215489224
 20
29.318221425874
 30
0.0
 11
-85.393230546773
 21
29.313468942648
 31
0.0
  0
LINE
  5
14A
330
122
100
AcDbEntity
  8
FREI LASSEN
  6
AUSGEZOGEN
 62
    18
420
        0
370
    18
100
AcDbLine
 10
-84.643245604322
 20
29.308716459422
 30
0.0
 11
-83.893260661871
 21
29.303963976196
 31
0.0
  0
LINE
  5
14B
330
122
100
AcDbEntity
  8
FREI LASSEN
  6
AUSGEZOGEN
 62
    18
420
        0
370
    18
100
AcDbLine
 10
-93.638312430508
 20
30.115731200585
 30
0.0
 11
-92.888327488057
 21
30.110978717359
 31
0.0
  0
LINE
  5
14C
330
122
100
AcDbEntity
  8
FREI LASSEN
  6
AUSGEZOGEN
 62
    18
420
        0
370
    18
100
AcDbLine
 10
-92.138342545606
 20
30.106226234133
 30
0.0
 11
-91.388357603155
 21
30.101473750907
 31
0.0
  0
LINE
  5
14D
330
122
100
AcDbEntity
  8
FREI LASSEN
  6
AUSGEZOGEN
 62
    18
420
        0
370
    18
100
AcDbLine
 10
-90.638372660704
 20
30.096721267681
 30
0.0
 11
-89.888387718253
 21
30.091968784455
 31
0.0
  0
LINE
  5
14E
330
122
100
AcDbEntity
  8
FREI LASSEN
  6
AUSGEZOGEN
 62
    18
420
        0
370
    18
100
AcDbLine
 10
-89.138402775802
 20
30.087216301229
 30
0.0
 11
-88.388417833351
 21
30.082463818003
 31
0.0
  0
LINE
  5
14F
330
122
100
AcDbEntity
  8
FREI LASSEN
  6
AUSGEZOGEN
 62
    18
420
        0
370
    18
100
AcDbLine
 10
-87.6384328909
 20
30.077711334777
 30
0.0
 11
-86.888447948449
 21
30.072958851551
 31
0.0
  0
LINE
  5
150
330
122
100
AcDbEntity
  8
FREI LASSEN
  6
AUSGEZOGEN
 62
    18
420
        0
370
    18
100
AcDbLine
 10
-86.138463005998
 20
30.068206368325
 30
0.0
 11
-85.388478063547
 21
30.063453885099
 31
0.0
  0
LINE
  5
151
330
122
100
AcDbEntity
  8
FREI LASSEN
  6
AUSGEZOGEN
 62
    18
420
        0
370
    18
100
AcDbLine
 10
-84.638493121096
 20
30.058701401873
 30
0.0
 11
-83.888508178645
 21
30.053948918647
 31
0.0
  0
LINE
  5
152
330
122
100
AcDbEntity
  8
FREI LASSEN
  6
AUSGEZOGEN
 62
    18
420
        0
370
    18
100
AcDbLine
 10
-93.355642708385
 20
30.86395504499
 30
0.0
 11
-92.883575004831
 21
30.86096365981
 31
0.0
  0
LINE
  5
153
330
122
100
AcDbEntity
  8
FREI LASSEN
  6
AUSGEZOGEN
 62
    18
420
        0
370
    18
100
AcDbLine
 10
-92.13359006238
 20
30.856211176584
 30
0.0
 11
-91.383605119929
 21
30.851458693358
 31
0.0
  0
LINE
  5
154
330
122
100
AcDbEntity
  8
FREI LASSEN
  6
AUSGEZOGEN
 62
    18
420
        0
370
    18
100
AcDbLine
 10
-90.633620177478
 20
30.846706210132
 30
0.0
 11
-89.883635235027
 21
30.841953726906
 31
0.0
  0
LINE
  5
155
330
122
100
AcDbEntity
  8
FREI LASSEN
  6
AUSGEZOGEN
 62
    18
420
        0
370
    18
100
AcDbLine
 10
-89.133650292576
 20
30.83720124368
 30
0.0
 11
-88.383665350125
 21
30.832448760454
 31
0.0
  0
LINE
  5
156
330
122
100
AcDbEntity
  8
FREI LASSEN
  6
AUSGEZOGEN
 62
    18
420
        0
370
    18
100
AcDbLine
 10
-87.633680407674
 20
30.827696277228
 30
0.0
 11
-86.883695465223
 21
30.822943794002
 31
0.0
  0
LINE
  5
157
330
122
100
AcDbEntity
  8
FREI LASSEN
  6
AUSGEZOGEN
 62
    18
420
        0
370
    18
100
AcDbLine
 10
-86.133710522772
 20
30.818191310776
 30
0.0
 11
-85.383725580321
 21
30.81343882755
 31
0.0
  0
LINE
  5
158
330
122
100
AcDbEntity
  8
FREI LASSEN
  6
AUSGEZOGEN
 62
    18
420
        0
370
    18
100
AcDbLine
 10
-84.63374063787
 20
30.808686344324
 30
0.0
 11
-83.883755695419
 21
30.803933861098
 31
0.0
  0
LINE
  5
159
330
122
100
AcDbEntity
  8
FREI LASSEN
  6
AUSGEZOGEN
 62
    18
420
        0
370
    18
100
AcDbLine
 10
-91.909734964954
 20
31.604807715828
 30
0.0
 11
-91.378852636703
 21
31.601443635809
 31
0.0
  0
LINE
  5
15A
330
122
100
AcDbEntity
  8
FREI LASSEN
  6
AUSGEZOGEN
 62
    18
420
        0
370
    18
100
AcDbLine
 10
-90.628867694252
 20
31.596691152583
 30
0.0
 11
-89.878882751801
 21
31.591938669357
 31
0.0
  0
LINE
  5
15B
330
122
100
AcDbEntity
  8
FREI LASSEN
  6
AUSGEZOGEN
 62
    18
420
        0
370
    18
100
AcDbLine
 10
-89.12889780935
 20
31.587186186131
 30
0.0
 11
-88.378912866899
 21
31.582433702905
 31
0.0
  0
LINE
  5
15C
330
122
100
AcDbEntity
  8
FREI LASSEN
  6
AUSGEZOGEN
 62
    18
420
        0
370
    18
100
AcDbLine
 10
-87.628927924448
 20
31.577681219679
 30
0.0
 11
-86.878942981997
 21
31.572928736453
 31
0.0
  0
LINE
  5
15D
330
122
100
AcDbEntity
  8
FREI LASSEN
  6
AUSGEZOGEN
 62
    18
420
        0
370
    18
100
AcDbLine
 10
-86.128958039546
 20
31.568176253227
 30
0.0
 11
-85.378973097095
 21
31.563423770001
 31
0.0
  0
LINE
  5
15E
330
122
100
AcDbEntity
  8
FREI LASSEN
  6
AUSGEZOGEN
 62
    18
420
        0
370
    18
100
AcDbLine
 10
-84.628988154644
 20
31.558671286775
 30
0.0
 11
-83.879003212193
 21
31.553918803549
 31
0.0
  0
LINE
  5
15F
330
122
100
AcDbEntity
  8
FREI LASSEN
  6
AUSGEZOGEN
 62
    18
420
        0
370
    18
100
AcDbLine
 10
-91.915939369974
 20
32.354862089577
 30
0.0
 11
-91.374100153477
 21
32.35142857826
 31
0.0
  0
LINE
  5
160
330
122
100
AcDbEntity
  8
FREI LASSEN
  6
AUSGEZOGEN
 62
    18
420
        0
370
    18
100
AcDbLine
 10
-90.624115211026
 20
32.346676095034
 30
0.0
 11
-89.874130268575
 21
32.341923611808
 31
0.0
  0
LINE
  5
161
330
122
100
AcDbEntity
  8
FREI LASSEN
  6
AUSGEZOGEN
 62
    18
420
        0
370
    18
100
AcDbLine
 10
-89.124145326124
 20
32.337171128582
 30
0.0
 11
-88.374160383673
 21
32.332418645356
 31
0.0
  0
LINE
  5
162
330
122
100
AcDbEntity
  8
FREI LASSEN
  6
AUSGEZOGEN
 62
    18
420
        0
370
    18
100
AcDbLine
 10
-87.624175441222
 20
32.32766616213
 30
0.0
 11
-86.874190498771
 21
32.322913678904
 31
0.0
  0
LINE
  5
163
330
122
100
AcDbEntity
  8
FREI LASSEN
  6
AUSGEZOGEN
 62
    18
420
        0
370
    18
100
AcDbLine
 10
-86.12420555632
 20
32.318161195678
 30
0.0
 11
-85.374220613869
 21
32.313408712452
 31
0.0
  0
LINE
  5
164
330
122
100
AcDbEntity
  8
FREI LASSEN
  6
AUSGEZOGEN
 62
    18
420
        0
370
    18
100
AcDbLine
 10
-84.624235671418
 20
32.308656229226
 30
0.0
 11
-83.874250728967
 21
32.303903746
 31
0.0
  0
LINE
  5
165
330
122
100
AcDbEntity
  8
FREI LASSEN
  6
AUSGEZOGEN
 62
    18
420
        0
370
    18
100
AcDbLine
 10
-93.390416601279
 20
33.114220572759
 30
0.0
 11
-92.869317555153
 21
33.110918487162
 31
0.0
  0
LINE
  5
166
330
122
100
AcDbEntity
  8
FREI LASSEN
  6
AUSGEZOGEN
 62
    18
420
        0
370
    18
100
AcDbLine
 10
-92.119332612702
 20
33.106166003936
 30
0.0
 11
-91.369347670251
 21
33.10141352071
 31
0.0
  0
LINE
  5
167
330
122
100
AcDbEntity
  8
FREI LASSEN
  6
AUSGEZOGEN
 62
    18
420
        0
370
    18
100
AcDbLine
 10
-90.6193627278
 20
33.096661037484
 30
0.0
 11
-89.869377785349
 21
33.091908554259
 31
0.0
  0
LINE
  5
168
330
122
100
AcDbEntity
  8
FREI LASSEN
  6
AUSGEZOGEN
 62
    18
420
        0
370
    18
100
AcDbLine
 10
-89.119392842898
 20
33.087156071033
 30
0.0
 11
-88.369407900447
 21
33.082403587807
 31
0.0
  0
LINE
  5
169
330
122
100
AcDbEntity
  8
FREI LASSEN
  6
AUSGEZOGEN
 62
    18
420
        0
370
    18
100
AcDbLine
 10
-87.619422957996
 20
33.077651104581
 30
0.0
 11
-86.869438015545
 21
33.072898621355
 31
0.0
  0
LINE
  5
16A
330
122
100
AcDbEntity
  8
FREI LASSEN
  6
AUSGEZOGEN
 62
    18
420
        0
370
    18
100
AcDbLine
 10
-86.119453073094
 20
33.068146138129
 30
0.0
 11
-85.369468130643
 21
33.063393654903
 31
0.0
  0
LINE
  5
16B
330
122
100
AcDbEntity
  8
FREI LASSEN
  6
AUSGEZOGEN
 62
    18
420
        0
370
    18
100
AcDbLine
 10
-84.619483188192
 20
33.058641171677
 30
0.0
 11
-83.869498245741
 21
33.053888688451
 31
0.0
  0
LINE
  5
16C
330
122
100
AcDbEntity
  8
FREI LASSEN
  6
AUSGEZOGEN
 62
    18
420
        0
370
    18
100
AcDbLine
 10
-93.614550014378
 20
33.865655912839
 30
0.0
 11
-92.864565071927
 21
33.860903429613
 31
0.0
  0
LINE
  5
16D
330
122
100
AcDbEntity
  8
FREI LASSEN
  6
AUSGEZOGEN
 62
    18
420
        0
370
    18
100
AcDbLine
 10
-92.114580129476
 20
33.856150946387
 30
0.0
 11
-91.364595187025
 21
33.851398463161
 31
0.0
  0
LINE
  5
16E
330
122
100
AcDbEntity
  8
FREI LASSEN
  6
AUSGEZOGEN
 62
    18
420
        0
370
    18
100
AcDbLine
 10
-90.614610244574
 20
33.846645979935
 30
0.0
 11
-89.864625302123
 21
33.841893496709
 31
0.0
  0
LINE
  5
16F
330
122
100
AcDbEntity
  8
FREI LASSEN
  6
AUSGEZOGEN
 62
    18
420
        0
370
    18
100
AcDbLine
 10
-89.114640359672
 20
33.837141013483
 30
0.0
 11
-88.364655417221
 21
33.832388530258
 31
0.0
  0
LINE
  5
170
330
122
100
AcDbEntity
  8
FREI LASSEN
  6
AUSGEZOGEN
 62
    18
420
        0
370
    18
100
AcDbLine
 10
-87.61467047477
 20
33.827636047032
 30
0.0
 11
-86.864685532319
 21
33.822883563806
 31
0.0
  0
LINE
  5
171
330
122
100
AcDbEntity
  8
FREI LASSEN
  6
AUSGEZOGEN
 62
    18
420
        0
370
    18
100
AcDbLine
 10
-86.114700589868
 20
33.81813108058
 30
0.0
 11
-85.364715647417
 21
33.813378597354
 31
0.0
  0
LINE
  5
172
330
122
100
AcDbEntity
  8
FREI LASSEN
  6
AUSGEZOGEN
 62
    18
420
        0
370
    18
100
AcDbLine
 10
-84.614730704966
 20
33.808626114128
 30
0.0
 11
-83.864745762515
 21
33.803873630902
 31
0.0
  0
LINE
  5
173
330
122
100
AcDbEntity
  8
FREI LASSEN
  6
AUSGEZOGEN
 62
    18
420
        0
370
    18
100
AcDbLine
 10
-93.609797531152
 20
34.61564085529
 30
0.0
 11
-92.859812588701
 21
34.610888372064
 31
0.0
  0
LINE
  5
174
330
122
100
AcDbEntity
  8
FREI LASSEN
  6
AUSGEZOGEN
 62
    18
420
        0
370
    18
100
AcDbLine
 10
-92.10982764625
 20
34.606135888838
 30
0.0
 11
-91.359842703799
 21
34.601383405612
 31
0.0
  0
LINE
  5
175
330
122
100
AcDbEntity
  8
FREI LASSEN
  6
AUSGEZOGEN
 62
    18
420
        0
370
    18
100
AcDbLine
 10
-90.609857761348
 20
34.596630922386
 30
0.0
 11
-89.859872818897
 21
34.59187843916
 31
0.0
  0
LINE
  5
176
330
122
100
AcDbEntity
  8
FREI LASSEN
  6
AUSGEZOGEN
 62
    18
420
        0
370
    18
100
AcDbLine
 10
-89.109887876446
 20
34.587125955934
 30
0.0
 11
-88.359902933995
 21
34.582373472708
 31
0.0
  0
LINE
  5
177
330
122
100
AcDbEntity
  8
FREI LASSEN
  6
AUSGEZOGEN
 62
    18
420
        0
370
    18
100
AcDbLine
 10
-87.609917991544
 20
34.577620989482
 30
0.0
 11
-86.859933049093
 21
34.572868506257
 31
0.0
  0
LINE
  5
178
330
122
100
AcDbEntity
  8
FREI LASSEN
  6
AUSGEZOGEN
 62
    18
420
        0
370
    18
100
AcDbLine
 10
-86.109948106642
 20
34.56811602303
 30
0.0
 11
-85.359963164191
 21
34.563363539805
 31
0.0
  0
LINE
  5
179
330
122
100
AcDbEntity
  8
FREI LASSEN
  6
AUSGEZOGEN
 62
    18
420
        0
370
    18
100
AcDbLine
 10
-84.60997822174
 20
34.558611056578
 30
0.0
 11
-83.954182803759
 21
34.554455430849
 31
0.0
  0
LINE
  5
17A
330
122
100
AcDbEntity
  8
FREI LASSEN
  6
AUSGEZOGEN
 62
    18
420
        0
370
    18
100
AcDbLine
 10
-91.445387401867
 20
21.101654441495
 30
0.0
 11
-91.294439916731
 21
21.25070093334
 31
0.0
  0
LINE
  5
17B
330
122
100
AcDbEntity
  8
FREI LASSEN
  6
AUSGEZOGEN
 62
    18
420
        0
370
    18
100
AcDbLine
 10
-90.841597461325
 20
21.697840408875
 30
0.0
 11
-90.69064997619
 21
21.84688690072
 31
0.0
  0
LINE
  5
17C
330
122
100
AcDbEntity
  8
FREI LASSEN
  6
AUSGEZOGEN
 62
    18
420
        0
370
    18
100
AcDbLine
 10
-89.935912550513
 20
22.592119359945
 30
0.0
 11
-89.911908815976
 21
22.615820797705
 31
0.0
  0
LINE
  5
17D
330
122
100
AcDbEntity
  8
FREI LASSEN
  6
AUSGEZOGEN
 62
    18
420
        0
370
    18
100
AcDbLine
 10
-83.898013145097
 20
28.553979033745
 30
0.0
 11
-83.872861565259
 21
28.578813861141
 31
0.0
  0
LINE
  5
17E
330
122
100
AcDbEntity
  8
FREI LASSEN
  6
AUSGEZOGEN
 62
    18
420
        0
370
    18
100
AcDbLine
 10
-91.440634918641
 20
21.851639383946
 30
0.0
 11
-91.289687433505
 21
22.000685875791
 31
0.0
  0
LINE
  5
17F
330
122
100
AcDbEntity
  8
FREI LASSEN
  6
AUSGEZOGEN
 62
    18
420
        0
370
    18
100
AcDbLine
 10
-90.836844978099
 20
22.447825351326
 30
0.0
 11
-90.685897492964
 21
22.596871843171
 31
0.0
  0
LINE
  5
180
330
122
100
AcDbEntity
  8
FREI LASSEN
  6
AUSGEZOGEN
 62
    18
420
        0
370
    18
100
AcDbLine
 10
-89.931160067287
 20
23.342104302396
 30
0.0
 11
-89.780212582151
 21
23.491150794241
 31
0.0
  0
LINE
  5
181
330
122
100
AcDbEntity
  8
FREI LASSEN
  6
AUSGEZOGEN
 62
    18
420
        0
370
    18
100
AcDbLine
 10
-89.327370126745
 20
23.938290269776
 30
0.0
 11
-89.17642264161
 21
24.087336761621
 31
0.0
  0
LINE
  5
182
330
122
100
AcDbEntity
  8
FREI LASSEN
  6
AUSGEZOGEN
 62
    18
420
        0
370
    18
100
AcDbLine
 10
-85.290573145798
 20
27.924248881547
 30
0.0
 11
-85.251788028089
 21
27.962545549591
 31
0.0
  0
LINE
  5
183
330
122
100
AcDbEntity
  8
FREI LASSEN
  6
AUSGEZOGEN
 62
    18
420
        0
370
    18
100
AcDbLine
 10
-84.798945572683
 20
28.409685025126
 30
0.0
 11
-84.647998087548
 21
28.558731516971
 31
0.0
  0
LINE
  5
184
330
122
100
AcDbEntity
  8
FREI LASSEN
  6
AUSGEZOGEN
 62
    18
420
        0
370
    18
100
AcDbLine
 10
-83.893260661871
 20
29.303963976196
 30
0.0
 11
-83.856309975406
 21
29.340449315345
 31
0.0
  0
LINE
  5
185
330
122
100
AcDbEntity
  8
FREI LASSEN
  6
AUSGEZOGEN
 62
    18
420
        0
370
    18
100
AcDbLine
 10
-92.341567346227
 20
21.707345375327
 30
0.0
 11
-92.190619861092
 21
21.856391867172
 31
0.0
  0
LINE
  5
186
330
122
100
AcDbEntity
  8
FREI LASSEN
  6
AUSGEZOGEN
 62
    18
420
        0
370
    18
100
AcDbLine
 10
-91.435882435415
 20
22.601624326397
 30
0.0
 11
-91.284934950279
 21
22.750670818242
 31
0.0
  0
LINE
  5
187
330
122
100
AcDbEntity
  8
FREI LASSEN
  6
AUSGEZOGEN
 62
    18
420
        0
370
    18
100
AcDbLine
 10
-90.832092494873
 20
23.197810293777
 30
0.0
 11
-90.681145009738
 21
23.346856785622
 31
0.0
  0
LINE
  5
188
330
122
100
AcDbEntity
  8
FREI LASSEN
  6
AUSGEZOGEN
 62
    18
420
        0
370
    18
100
AcDbLine
 10
-89.926407584061
 20
24.092089244847
 30
0.0
 11
-89.775460098925
 21
24.241135736692
 31
0.0
  0
LINE
  5
189
330
122
100
AcDbEntity
  8
FREI LASSEN
  6
AUSGEZOGEN
 62
    18
420
        0
370
    18
100
AcDbLine
 10
-89.322617643519
 20
24.688275212227
 30
0.0
 11
-89.171670158384
 21
24.837321704072
 31
0.0
  0
LINE
  5
18A
330
122
100
AcDbEntity
  8
FREI LASSEN
  6
AUSGEZOGEN
 62
    18
420
        0
370
    18
100
AcDbLine
 10
-85.397983029999
 20
28.563484000197
 30
0.0
 11
-85.247035544864
 21
28.712530492042
 31
0.0
  0
LINE
  5
18B
330
122
100
AcDbEntity
  8
FREI LASSEN
  6
AUSGEZOGEN
 62
    18
420
        0
370
    18
100
AcDbLine
 10
-84.794193089457
 20
29.159669967577
 30
0.0
 11
-84.643245604322
 21
29.308716459422
 31
0.0
  0
LINE
  5
18C
330
122
100
AcDbEntity
  8
FREI LASSEN
  6
AUSGEZOGEN
 62
    18
420
        0
370
    18
100
AcDbLine
 10
-83.888508178645
 20
30.053948918647
 30
0.0
 11
-83.85155749218
 21
30.090434257796
 31
0.0
  0
LINE
  5
18D
330
122
100
AcDbEntity
  8
FREI LASSEN
  6
AUSGEZOGEN
 62
    18
420
        0
370
    18
100
AcDbLine
 10
-92.336814863001
 20
22.457330317778
 30
0.0
 11
-92.185867377865
 21
22.606376809623
 31
0.0
  0
LINE
  5
18E
330
122
100
AcDbEntity
  8
FREI LASSEN
  6
AUSGEZOGEN
 62
    18
420
        0
370
    18
100
AcDbLine
 10
-91.431129952189
 20
23.351609268848
 30
0.0
 11
-91.280182467053
 21
23.500655760693
 31
0.0
  0
LINE
  5
18F
330
122
100
AcDbEntity
  8
FREI LASSEN
  6
AUSGEZOGEN
 62
    18
420
        0
370
    18
100
AcDbLine
 10
-90.827340011647
 20
23.947795236228
 30
0.0
 11
-90.676392526512
 21
24.096841728073
 31
0.0
  0
LINE
  5
190
330
122
100
AcDbEntity
  8
FREI LASSEN
  6
AUSGEZOGEN
 62
    18
420
        0
370
    18
100
AcDbLine
 10
-89.921655100835
 20
24.842074187298
 30
0.0
 11
-89.809492733408
 21
24.952824011099
 31
0.0
  0
LINE
  5
191
330
122
100
AcDbEntity
  8
FREI LASSEN
  6
AUSGEZOGEN
 62
    18
420
        0
370
    18
100
AcDbLine
 10
-86.7905430307
 20
27.933753847999
 30
0.0
 11
-86.751757912991
 21
27.972050516043
 31
0.0
  0
LINE
  5
192
330
122
100
AcDbEntity
  8
FREI LASSEN
  6
AUSGEZOGEN
 62
    18
420
        0
370
    18
100
AcDbLine
 10
-86.298915457585
 20
28.419189991578
 30
0.0
 11
-86.14796797245
 21
28.568236483423
 31
0.0
  0
LINE
  5
193
330
122
100
AcDbEntity
  8
FREI LASSEN
  6
AUSGEZOGEN
 62
    18
420
        0
370
    18
100
AcDbLine
 10
-85.393230546773
 20
29.313468942648
 30
0.0
 11
-85.242283061638
 21
29.462515434493
 31
0.0
  0
LINE
  5
194
330
122
100
AcDbEntity
  8
FREI LASSEN
  6
AUSGEZOGEN
 62
    18
420
        0
370
    18
100
AcDbLine
 10
-84.789440606231
 20
29.909654910028
 30
0.0
 11
-84.638493121096
 21
30.058701401873
 31
0.0
  0
LINE
  5
195
330
122
100
AcDbEntity
  8
FREI LASSEN
  6
AUSGEZOGEN
 62
    18
420
        0
370
    18
100
AcDbLine
 10
-83.883755695419
 20
30.803933861098
 30
0.0
 11
-83.846805008954
 21
30.840419200247
 31
0.0
  0
LINE
  5
196
330
122
100
AcDbEntity
  8
FREI LASSEN
  6
AUSGEZOGEN
 62
    18
420
        0
370
    18
100
AcDbLine
 10
-92.332062379775
 20
23.207315260229
 30
0.0
 11
-92.18111489464
 21
23.356361752074
 31
0.0
  0
LINE
  5
197
330
122
100
AcDbEntity
  8
FREI LASSEN
  6
AUSGEZOGEN
 62
    18
420
        0
370
    18
100
AcDbLine
 10
-91.426377468963
 20
24.101594211299
 30
0.0
 11
-91.275429983827
 21
24.250640703144
 31
0.0
  0
LINE
  5
198
330
122
100
AcDbEntity
  8
FREI LASSEN
  6
AUSGEZOGEN
 62
    18
420
        0
370
    18
100
AcDbLine
 10
-90.822587528421
 20
24.697780178679
 30
0.0
 11
-90.671640043286
 21
24.846826670524
 31
0.0
  0
LINE
  5
199
330
122
100
AcDbEntity
  8
FREI LASSEN
  6
AUSGEZOGEN
 62
    18
420
        0
370
    18
100
AcDbLine
 10
-86.897952914901
 20
28.572988966649
 30
0.0
 11
-86.747005429765
 21
28.722035458494
 31
0.0
  0
LINE
  5
19A
330
122
100
AcDbEntity
  8
FREI LASSEN
  6
AUSGEZOGEN
 62
    18
420
        0
370
    18
100
AcDbLine
 10
-86.294162974359
 20
29.169174934029
 30
0.0
 11
-86.143215489224
 21
29.318221425874
 31
0.0
  0
LINE
  5
19B
330
122
100
AcDbEntity
  8
FREI LASSEN
  6
AUSGEZOGEN
 62
    18
420
        0
370
    18
100
AcDbLine
 10
-85.388478063547
 20
30.063453885099
 30
0.0
 11
-85.237530578412
 21
30.212500376944
 31
0.0
  0
LINE
  5
19C
330
122
100
AcDbEntity
  8
FREI LASSEN
  6
AUSGEZOGEN
 62
    18
420
        0
370
    18
100
AcDbLine
 10
-84.784688123005
 20
30.659639852479
 30
0.0
 11
-84.63374063787
 21
30.808686344324
 31
0.0
  0
LINE
  5
19D
330
122
100
AcDbEntity
  8
FREI LASSEN
  6
AUSGEZOGEN
 62
    18
420
        0
370
    18
100
AcDbLine
 10
-83.879003212193
 20
31.553918803549
 30
0.0
 11
-83.842052525728
 21
31.590404142698
 31
0.0
  0
LINE
  5
19E
330
122
100
AcDbEntity
  8
FREI LASSEN
  6
AUSGEZOGEN
 62
    18
420
        0
370
    18
100
AcDbLine
 10
-92.868096219975
 20
23.423324401281
 30
0.0
 11
-92.780152351955
 21
23.510160727145
 31
0.0
  0
LINE
  5
19F
330
122
100
AcDbEntity
  8
FREI LASSEN
  6
AUSGEZOGEN
 62
    18
420
        0
370
    18
100
AcDbLine
 10
-92.327309896549
 20
23.95730020268
 30
0.0
 11
-92.176362411414
 21
24.106346694525
 31
0.0
  0
LINE
  5
1A0
330
122
100
AcDbEntity
  8
FREI LASSEN
  6
AUSGEZOGEN
 62
    18
420
        0
370
    18
100
AcDbLine
 10
-91.421624985737
 20
24.85157915375
 30
0.0
 11
-91.270677500601
 21
25.000625645595
 31
0.0
  0
LINE
  5
1A1
330
122
100
AcDbEntity
  8
FREI LASSEN
  6
AUSGEZOGEN
 62
    18
420
        0
370
    18
100
AcDbLine
 10
-90.817835045195
 20
25.44776512113
 30
0.0
 11
-90.66688756006
 21
25.596811612975
 31
0.0
  0
LINE
  5
1A2
330
122
100
AcDbEntity
  8
FREI LASSEN
  6
AUSGEZOGEN
 62
    18
420
        0
370
    18
100
AcDbLine
 10
-88.290512915602
 20
27.943258814451
 30
0.0
 11
-88.251727797893
 21
27.981555482495
 31
0.0
  0
LINE
  5
1A3
330
122
100
AcDbEntity
  8
FREI LASSEN
  6
AUSGEZOGEN
 62
    18
420
        0
370
    18
100
AcDbLine
 10
-87.798885342487
 20
28.42869495803
 30
0.0
 11
-87.647937857352
 21
28.577741449875
 31
0.0
  0
LINE
  5
1A4
330
122
100
AcDbEntity
  8
FREI LASSEN
  6
AUSGEZOGEN
 62
    18
420
        0
370
    18
100
AcDbLine
 10
-86.893200431675
 20
29.3229739091
 30
0.0
 11
-86.742252946539
 21
29.472020400945
 31
0.0
  0
LINE
  5
1A5
330
122
100
AcDbEntity
  8
FREI LASSEN
  6
AUSGEZOGEN
 62
    18
420
        0
370
    18
100
AcDbLine
 10
-86.289410491133
 20
29.91915987648
 30
0.0
 11
-86.138463005998
 21
30.068206368325
 31
0.0
  0
LINE
  5
1A6
330
122
100
AcDbEntity
  8
FREI LASSEN
  6
AUSGEZOGEN
 62
    18
420
        0
370
    18
100
AcDbLine
 10
-85.383725580321
 20
30.81343882755
 30
0.0
 11
-85.232778095186
 21
30.962485319395
 31
0.0
  0
LINE
  5
1A7
330
122
100
AcDbEntity
  8
FREI LASSEN
  6
AUSGEZOGEN
 62
    18
420
        0
370
    18
100
AcDbLine
 10
-84.779935639779
 20
31.40962479493
 30
0.0
 11
-84.628988154644
 21
31.558671286775
 31
0.0
  0
LINE
  5
1A8
330
122
100
AcDbEntity
  8
FREI LASSEN
  6
AUSGEZOGEN
 62
    18
420
        0
370
    18
100
AcDbLine
 10
-83.874250728967
 20
32.303903746
 30
0.0
 11
-83.837300042502
 21
32.340389085149
 31
0.0
  0
LINE
  5
1A9
330
122
100
AcDbEntity
  8
FREI LASSEN
  6
AUSGEZOGEN
 62
    18
420
        0
370
    18
100
AcDbLine
 10
-92.926347353865
 20
24.111099177751
 30
0.0
 11
-92.775399868729
 21
24.260145669596
 31
0.0
  0
LINE
  5
1AA
330
122
100
AcDbEntity
  8
FREI LASSEN
  6
AUSGEZOGEN
 62
    18
420
        0
370
    18
100
AcDbLine
 10
-92.322557413323
 20
24.707285145131
 30
0.0
 11
-92.171609928188
 21
24.856331636976
 31
0.0
  0
LINE
  5
1AB
330
122
100
AcDbEntity
  8
FREI LASSEN
  6
AUSGEZOGEN
 62
    18
420
        0
370
    18
100
AcDbLine
 10
-91.416872502511
 20
25.601564096201
 30
0.0
 11
-91.265925017375
 21
25.750610588046
 31
0.0
  0
LINE
  5
1AC
330
122
100
AcDbEntity
  8
FREI LASSEN
  6
AUSGEZOGEN
 62
    18
420
        0
370
    18
100
AcDbLine
 10
-90.813082561969
 20
26.197750063581
 30
0.0
 11
-90.662135076834
 21
26.346796555426
 31
0.0
  0
LINE
  5
1AD
330
122
100
AcDbEntity
  8
FREI LASSEN
  6
AUSGEZOGEN
 62
    18
420
        0
370
    18
100
AcDbLine
 10
-88.397922799803
 20
28.582493933101
 30
0.0
 11
-88.246975314668
 21
28.731540424946
 31
0.0
  0
LINE
  5
1AE
330
122
100
AcDbEntity
  8
FREI LASSEN
  6
AUSGEZOGEN
 62
    18
420
        0
370
    18
100
AcDbLine
 10
-87.794132859261
 20
29.178679900481
 30
0.0
 11
-87.643185374126
 21
29.327726392326
 31
0.0
  0
LINE
  5
1AF
330
122
100
AcDbEntity
  8
FREI LASSEN
  6
AUSGEZOGEN
 62
    18
420
        0
370
    18
100
AcDbLine
 10
-86.888447948449
 20
30.072958851551
 30
0.0
 11
-86.737500463313
 21
30.222005343396
 31
0.0
  0
LINE
  5
1B0
330
122
100
AcDbEntity
  8
FREI LASSEN
  6
AUSGEZOGEN
 62
    18
420
        0
370
    18
100
AcDbLine
 10
-86.284658007907
 20
30.669144818931
 30
0.0
 11
-86.133710522772
 21
30.818191310776
 31
0.0
  0
LINE
  5
1B1
330
122
100
AcDbEntity
  8
FREI LASSEN
  6
AUSGEZOGEN
 62
    18
420
        0
370
    18
100
AcDbLine
 10
-85.378973097095
 20
31.563423770001
 30
0.0
 11
-85.22802561196
 21
31.712470261846
 31
0.0
  0
LINE
  5
1B2
330
122
100
AcDbEntity
  8
FREI LASSEN
  6
AUSGEZOGEN
 62
    18
420
        0
370
    18
100
AcDbLine
 10
-84.775183156553
 20
32.159609737381
 30
0.0
 11
-84.624235671418
 21
32.308656229226
 31
0.0
  0
LINE
  5
1B3
330
122
100
AcDbEntity
  8
FREI LASSEN
  6
AUSGEZOGEN
 62
    18
420
        0
370
    18
100
AcDbLine
 10
-83.869498245741
 20
33.053888688451
 30
0.0
 11
-83.832547559276
 21
33.0903740276
 31
0.0
  0
LINE
  5
1B4
330
122
100
AcDbEntity
  8
FREI LASSEN
  6
AUSGEZOGEN
 62
    18
420
        0
370
    18
100
AcDbLine
 10
-92.921594870639
 20
24.861084120202
 30
0.0
 11
-92.770647385503
 21
25.010130612047
 31
0.0
  0
LINE
  5
1B5
330
122
100
AcDbEntity
  8
FREI LASSEN
  6
AUSGEZOGEN
 62
    18
420
        0
370
    18
100
AcDbLine
 10
-92.317804930097
 20
25.457270087582
 30
0.0
 11
-92.166857444962
 21
25.606316579427
 31
0.0
  0
LINE
  5
1B6
330
122
100
AcDbEntity
  8
FREI LASSEN
  6
AUSGEZOGEN
 62
    18
420
        0
370
    18
100
AcDbLine
 10
-91.412120019285
 20
26.351549038652
 30
0.0
 11
-91.261172534149
 21
26.500595530497
 31
0.0
  0
LINE
  5
1B7
330
122
100
AcDbEntity
  8
FREI LASSEN
  6
AUSGEZOGEN
 62
    18
420
        0
370
    18
100
AcDbLine
 10
-90.808330078743
 20
26.947735006032
 30
0.0
 11
-90.657382593608
 21
27.096781497877
 31
0.0
  0
LINE
  5
1B8
330
122
100
AcDbEntity
  8
FREI LASSEN
  6
AUSGEZOGEN
 62
    18
420
        0
370
    18
100
AcDbLine
 10
-89.790482800504
 20
27.952763780903
 30
0.0
 11
-89.751697682795
 21
27.991060448947
 31
0.0
  0
LINE
  5
1B9
330
122
100
AcDbEntity
  8
FREI LASSEN
  6
AUSGEZOGEN
 62
    18
420
        0
370
    18
100
AcDbLine
 10
-89.298855227389
 20
28.438199924482
 30
0.0
 11
-89.147907742254
 21
28.587246416327
 31
0.0
  0
LINE
  5
1BA
330
122
100
AcDbEntity
  8
FREI LASSEN
  6
AUSGEZOGEN
 62
    18
420
        0
370
    18
100
AcDbLine
 10
-88.393170316577
 20
29.332478875552
 30
0.0
 11
-88.242222831441
 21
29.481525367397
 31
0.0
  0
LINE
  5
1BB
330
122
100
AcDbEntity
  8
FREI LASSEN
  6
AUSGEZOGEN
 62
    18
420
        0
370
    18
100
AcDbLine
 10
-87.789380376035
 20
29.928664842932
 30
0.0
 11
-87.6384328909
 21
30.077711334777
 31
0.0
  0
LINE
  5
1BC
330
122
100
AcDbEntity
  8
FREI LASSEN
  6
AUSGEZOGEN
 62
    18
420
        0
370
    18
100
AcDbLine
 10
-86.883695465223
 20
30.822943794002
 30
0.0
 11
-86.732747980087
 21
30.971990285847
 31
0.0
  0
LINE
  5
1BD
330
122
100
AcDbEntity
  8
FREI LASSEN
  6
AUSGEZOGEN
 62
    18
420
        0
370
    18
100
AcDbLine
 10
-86.279905524681
 20
31.419129761382
 30
0.0
 11
-86.128958039546
 21
31.568176253227
 31
0.0
  0
LINE
  5
1BE
330
122
100
AcDbEntity
  8
FREI LASSEN
  6
AUSGEZOGEN
 62
    18
420
        0
370
    18
100
AcDbLine
 10
-85.374220613869
 20
32.313408712452
 30
0.0
 11
-85.223273128734
 21
32.462455204297
 31
0.0
  0
LINE
  5
1BF
330
122
100
AcDbEntity
  8
FREI LASSEN
  6
AUSGEZOGEN
 62
    18
420
        0
370
    18
100
AcDbLine
 10
-84.770430673327
 20
32.909594679832
 30
0.0
 11
-84.619483188192
 21
33.058641171677
 31
0.0
  0
LINE
  5
1C0
330
122
100
AcDbEntity
  8
FREI LASSEN
  6
AUSGEZOGEN
 62
    18
420
        0
370
    18
100
AcDbLine
 10
-83.864745762515
 20
33.803873630902
 30
0.0
 11
-83.82779507605
 21
33.840358970051
 31
0.0
  0
LINE
  5
1C1
330
122
100
AcDbEntity
  8
FREI LASSEN
  6
AUSGEZOGEN
 62
    18
420
        0
370
    18
100
AcDbLine
 10
-92.916842387413
 20
25.611069062653
 30
0.0
 11
-92.765894902277
 21
25.760115554498
 31
0.0
  0
LINE
  5
1C2
330
122
100
AcDbEntity
  8
FREI LASSEN
  6
AUSGEZOGEN
 62
    18
420
        0
370
    18
100
AcDbLine
 10
-92.313052446871
 20
26.207255030033
 30
0.0
 11
-92.162104961736
 21
26.356301521878
 31
0.0
  0
LINE
  5
1C3
330
122
100
AcDbEntity
  8
FREI LASSEN
  6
AUSGEZOGEN
 62
    18
420
        0
370
    18
100
AcDbLine
 10
-91.407367536059
 20
27.101533981103
 30
0.0
 11
-91.256420050923
 21
27.250580472948
 31
0.0
  0
LINE
  5
1C4
330
122
100
AcDbEntity
  8
FREI LASSEN
  6
AUSGEZOGEN
 62
    18
420
        0
370
    18
100
AcDbLine
 10
-90.803577595517
 20
27.697719948483
 30
0.0
 11
-90.652630110382
 21
27.846766440328
 31
0.0
  0
LINE
  5
1C5
330
122
100
AcDbEntity
  8
FREI LASSEN
  6
AUSGEZOGEN
 62
    18
420
        0
370
    18
100
AcDbLine
 10
-89.897892684705
 20
28.591998899553
 30
0.0
 11
-89.746945199569
 21
28.741045391398
 31
0.0
  0
LINE
  5
1C6
330
122
100
AcDbEntity
  8
FREI LASSEN
  6
AUSGEZOGEN
 62
    18
420
        0
370
    18
100
AcDbLine
 10
-89.294102744163
 20
29.188184866933
 30
0.0
 11
-89.143155259028
 21
29.337231358778
 31
0.0
  0
LINE
  5
1C7
330
122
100
AcDbEntity
  8
FREI LASSEN
  6
AUSGEZOGEN
 62
    18
420
        0
370
    18
100
AcDbLine
 10
-88.388417833351
 20
30.082463818003
 30
0.0
 11
-88.237470348215
 21
30.231510309848
 31
0.0
  0
LINE
  5
1C8
330
122
100
AcDbEntity
  8
FREI LASSEN
  6
AUSGEZOGEN
 62
    18
420
        0
370
    18
100
AcDbLine
 10
-87.784627892809
 20
30.678649785383
 30
0.0
 11
-87.633680407674
 21
30.827696277228
 31
0.0
  0
LINE
  5
1C9
330
122
100
AcDbEntity
  8
FREI LASSEN
  6
AUSGEZOGEN
 62
    18
420
        0
370
    18
100
AcDbLine
 10
-86.878942981997
 20
31.572928736453
 30
0.0
 11
-86.727995496861
 21
31.721975228298
 31
0.0
  0
LINE
  5
1CA
330
122
100
AcDbEntity
  8
FREI LASSEN
  6
AUSGEZOGEN
 62
    18
420
        0
370
    18
100
AcDbLine
 10
-86.275153041455
 20
32.169114703833
 30
0.0
 11
-86.12420555632
 21
32.318161195678
 31
0.0
  0
LINE
  5
1CB
330
122
100
AcDbEntity
  8
FREI LASSEN
  6
AUSGEZOGEN
 62
    18
420
        0
370
    18
100
AcDbLine
 10
-85.369468130643
 20
33.063393654903
 30
0.0
 11
-85.218520645508
 21
33.212440146748
 31
0.0
  0
LINE
  5
1CC
330
122
100
AcDbEntity
  8
FREI LASSEN
  6
AUSGEZOGEN
 62
    18
420
        0
370
    18
100
AcDbLine
 10
-84.765678190101
 20
33.659579622283
 30
0.0
 11
-84.614730704966
 21
33.808626114128
 31
0.0
  0
LINE
  5
1CD
330
122
100
AcDbEntity
  8
FREI LASSEN
  6
AUSGEZOGEN
 62
    18
420
        0
370
    18
100
AcDbLine
 10
-92.912089904187
 20
26.361054005104
 30
0.0
 11
-92.761142419051
 21
26.510100496949
 31
0.0
  0
LINE
  5
1CE
330
122
100
AcDbEntity
  8
FREI LASSEN
  6
AUSGEZOGEN
 62
    18
420
        0
370
    18
100
AcDbLine
 10
-92.308299963645
 20
26.957239972484
 30
0.0
 11
-92.15735247851
 21
27.106286464329
 31
0.0
  0
LINE
  5
1CF
330
122
100
AcDbEntity
  8
FREI LASSEN
  6
AUSGEZOGEN
 62
    18
420
        0
370
    18
100
AcDbLine
 10
-91.402615052833
 20
27.851518923554
 30
0.0
 11
-91.251667567697
 21
28.000565415399
 31
0.0
  0
LINE
  5
1D0
330
122
100
AcDbEntity
  8
FREI LASSEN
  6
AUSGEZOGEN
 62
    18
420
        0
370
    18
100
AcDbLine
 10
-90.798825112291
 20
28.447704890934
 30
0.0
 11
-90.647877627156
 21
28.596751382779
 31
0.0
  0
LINE
  5
1D1
330
122
100
AcDbEntity
  8
FREI LASSEN
  6
AUSGEZOGEN
 62
    18
420
        0
370
    18
100
AcDbLine
 10
-89.893140201479
 20
29.341983842004
 30
0.0
 11
-89.742192716343
 21
29.491030333849
 31
0.0
  0
LINE
  5
1D2
330
122
100
AcDbEntity
  8
FREI LASSEN
  6
AUSGEZOGEN
 62
    18
420
        0
370
    18
100
AcDbLine
 10
-89.289350260937
 20
29.938169809384
 30
0.0
 11
-89.138402775802
 21
30.087216301229
 31
0.0
  0
LINE
  5
1D3
330
122
100
AcDbEntity
  8
FREI LASSEN
  6
AUSGEZOGEN
 62
    18
420
        0
370
    18
100
AcDbLine
 10
-88.383665350125
 20
30.832448760454
 30
0.0
 11
-88.232717864989
 21
30.981495252299
 31
0.0
  0
LINE
  5
1D4
330
122
100
AcDbEntity
  8
FREI LASSEN
  6
AUSGEZOGEN
 62
    18
420
        0
370
    18
100
AcDbLine
 10
-87.779875409583
 20
31.428634727834
 30
0.0
 11
-87.628927924448
 21
31.577681219679
 31
0.0
  0
LINE
  5
1D5
330
122
100
AcDbEntity
  8
FREI LASSEN
  6
AUSGEZOGEN
 62
    18
420
        0
370
    18
100
AcDbLine
 10
-86.874190498771
 20
32.322913678904
 30
0.0
 11
-86.723243013636
 21
32.471960170749
 31
0.0
  0
LINE
  5
1D6
330
122
100
AcDbEntity
  8
FREI LASSEN
  6
AUSGEZOGEN
 62
    18
420
        0
370
    18
100
AcDbLine
 10
-86.270400558229
 20
32.919099646284
 30
0.0
 11
-86.119453073094
 21
33.068146138129
 31
0.0
  0
LINE
  5
1D7
330
122
100
AcDbEntity
  8
FREI LASSEN
  6
AUSGEZOGEN
 62
    18
420
        0
370
    18
100
AcDbLine
 10
-85.364715647417
 20
33.813378597354
 30
0.0
 11
-85.213768162281
 21
33.962425089199
 31
0.0
  0
LINE
  5
1D8
330
122
100
AcDbEntity
  8
FREI LASSEN
  6
AUSGEZOGEN
 62
    18
420
        0
370
    18
100
AcDbLine
 10
-84.760925706875
 20
34.409564564734
 30
0.0
 11
-84.60997822174
 21
34.558611056579
 31
0.0
  0
LINE
  5
1D9
330
122
100
AcDbEntity
  8
FREI LASSEN
  6
AUSGEZOGEN
 62
    18
420
        0
370
    18
100
AcDbLine
 10
-92.303547480419
 20
27.707224914935
 30
0.0
 11
-92.152599995284
 21
27.85627140678
 31
0.0
  0
LINE
  5
1DA
330
122
100
AcDbEntity
  8
FREI LASSEN
  6
AUSGEZOGEN
 62
    18
420
        0
370
    18
100
AcDbLine
 10
-91.397862569607
 20
28.601503866005
 30
0.0
 11
-91.246915084471
 21
28.75055035785
 31
0.0
  0
LINE
  5
1DB
330
122
100
AcDbEntity
  8
FREI LASSEN
  6
AUSGEZOGEN
 62
    18
420
        0
370
    18
100
AcDbLine
 10
-90.794072629065
 20
29.197689833385
 30
0.0
 11
-90.64312514393
 21
29.34673632523
 31
0.0
  0
LINE
  5
1DC
330
122
100
AcDbEntity
  8
FREI LASSEN
  6
AUSGEZOGEN
 62
    18
420
        0
370
    18
100
AcDbLine
 10
-89.888387718253
 20
30.091968784455
 30
0.0
 11
-89.737440233117
 21
30.2410152763
 31
0.0
  0
LINE
  5
1DD
330
122
100
AcDbEntity
  8
FREI LASSEN
  6
AUSGEZOGEN
 62
    18
420
        0
370
    18
100
AcDbLine
 10
-89.284597777711
 20
30.688154751835
 30
0.0
 11
-89.133650292576
 21
30.83720124368
 31
0.0
  0
LINE
  5
1DE
330
122
100
AcDbEntity
  8
FREI LASSEN
  6
AUSGEZOGEN
 62
    18
420
        0
370
    18
100
AcDbLine
 10
-88.378912866899
 20
31.582433702905
 30
0.0
 11
-88.227965381763
 21
31.73148019475
 31
0.0
  0
LINE
  5
1DF
330
122
100
AcDbEntity
  8
FREI LASSEN
  6
AUSGEZOGEN
 62
    18
420
        0
370
    18
100
AcDbLine
 10
-87.775122926357
 20
32.178619670285
 30
0.0
 11
-87.624175441222
 21
32.32766616213
 31
0.0
  0
LINE
  5
1E0
330
122
100
AcDbEntity
  8
FREI LASSEN
  6
AUSGEZOGEN
 62
    18
420
        0
370
    18
100
AcDbLine
 10
-86.869438015545
 20
33.072898621355
 30
0.0
 11
-86.718490530409
 21
33.2219451132
 31
0.0
  0
LINE
  5
1E1
330
122
100
AcDbEntity
  8
FREI LASSEN
  6
AUSGEZOGEN
 62
    18
420
        0
370
    18
100
AcDbLine
 10
-86.265648075003
 20
33.669084588735
 30
0.0
 11
-86.114700589868
 21
33.81813108058
 31
0.0
  0
LINE
  5
1E2
330
122
100
AcDbEntity
  8
FREI LASSEN
  6
AUSGEZOGEN
 62
    18
420
        0
370
    18
100
AcDbLine
 10
-85.359963164191
 20
34.563363539805
 30
0.0
 11
-85.209015679056
 21
34.71241003165
 31
0.0
  0
LINE
  5
1E3
330
122
100
AcDbEntity
  8
FREI LASSEN
  6
AUSGEZOGEN
 62
    18
420
        0
370
    18
100
AcDbLine
 10
-92.298794997193
 20
28.457209857386
 30
0.0
 11
-92.147847512058
 21
28.606256349231
 31
0.0
  0
LINE
  5
1E4
330
122
100
AcDbEntity
  8
FREI LASSEN
  6
AUSGEZOGEN
 62
    18
420
        0
370
    18
100
AcDbLine
 10
-91.393110086381
 20
29.351488808456
 30
0.0
 11
-91.242162601245
 21
29.500535300301
 31
0.0
  0
LINE
  5
1E5
330
122
100
AcDbEntity
  8
FREI LASSEN
  6
AUSGEZOGEN
 62
    18
420
        0
370
    18
100
AcDbLine
 10
-90.789320145839
 20
29.947674775836
 30
0.0
 11
-90.638372660704
 21
30.096721267681
 31
0.0
  0
LINE
  5
1E6
330
122
100
AcDbEntity
  8
FREI LASSEN
  6
AUSGEZOGEN
 62
    18
420
        0
370
    18
100
AcDbLine
 10
-89.883635235027
 20
30.841953726906
 30
0.0
 11
-89.732687749891
 21
30.991000218751
 31
0.0
  0
LINE
  5
1E7
330
122
100
AcDbEntity
  8
FREI LASSEN
  6
AUSGEZOGEN
 62
    18
420
        0
370
    18
100
AcDbLine
 10
-89.279845294485
 20
31.438139694286
 30
0.0
 11
-89.12889780935
 21
31.587186186131
 31
0.0
  0
LINE
  5
1E8
330
122
100
AcDbEntity
  8
FREI LASSEN
  6
AUSGEZOGEN
 62
    18
420
        0
370
    18
100
AcDbLine
 10
-88.374160383673
 20
32.332418645356
 30
0.0
 11
-88.223212898537
 21
32.481465137201
 31
0.0
  0
LINE
  5
1E9
330
122
100
AcDbEntity
  8
FREI LASSEN
  6
AUSGEZOGEN
 62
    18
420
        0
370
    18
100
AcDbLine
 10
-87.770370443131
 20
32.928604612736
 30
0.0
 11
-87.619422957996
 21
33.077651104581
 31
0.0
  0
LINE
  5
1EA
330
122
100
AcDbEntity
  8
FREI LASSEN
  6
AUSGEZOGEN
 62
    18
420
        0
370
    18
100
AcDbLine
 10
-86.864685532319
 20
33.822883563806
 30
0.0
 11
-86.713738047184
 21
33.971930055651
 31
0.0
  0
LINE
  5
1EB
330
122
100
AcDbEntity
  8
FREI LASSEN
  6
AUSGEZOGEN
 62
    18
420
        0
370
    18
100
AcDbLine
 10
-86.260895591777
 20
34.419069531186
 30
0.0
 11
-86.109948106642
 21
34.568116023031
 31
0.0
  0
LINE
  5
1EC
330
122
100
AcDbEntity
  8
FREI LASSEN
  6
AUSGEZOGEN
 62
    18
420
        0
370
    18
100
AcDbLine
 10
-92.294042513967
 20
29.207194799837
 30
0.0
 11
-92.143095028832
 21
29.356241291682
 31
0.0
  0
LINE
  5
1ED
330
122
100
AcDbEntity
  8
FREI LASSEN
  6
AUSGEZOGEN
 62
    18
420
        0
370
    18
100
AcDbLine
 10
-91.388357603155
 20
30.101473750907
 30
0.0
 11
-91.237410118019
 21
30.250520242752
 31
0.0
  0
LINE
  5
1EE
330
122
100
AcDbEntity
  8
FREI LASSEN
  6
AUSGEZOGEN
 62
    18
420
        0
370
    18
100
AcDbLine
 10
-90.784567662613
 20
30.697659718287
 30
0.0
 11
-90.633620177478
 21
30.846706210132
 31
0.0
  0
LINE
  5
1EF
330
122
100
AcDbEntity
  8
FREI LASSEN
  6
AUSGEZOGEN
 62
    18
420
        0
370
    18
100
AcDbLine
 10
-89.878882751801
 20
31.591938669357
 30
0.0
 11
-89.727935266665
 21
31.740985161202
 31
0.0
  0
LINE
  5
1F0
330
122
100
AcDbEntity
  8
FREI LASSEN
  6
AUSGEZOGEN
 62
    18
420
        0
370
    18
100
AcDbLine
 10
-89.275092811259
 20
32.188124636737
 30
0.0
 11
-89.124145326124
 21
32.337171128582
 31
0.0
  0
LINE
  5
1F1
330
122
100
AcDbEntity
  8
FREI LASSEN
  6
AUSGEZOGEN
 62
    18
420
        0
370
    18
100
AcDbLine
 10
-88.369407900447
 20
33.082403587807
 30
0.0
 11
-88.218460415311
 21
33.231450079652
 31
0.0
  0
LINE
  5
1F2
330
122
100
AcDbEntity
  8
FREI LASSEN
  6
AUSGEZOGEN
 62
    18
420
        0
370
    18
100
AcDbLine
 10
-87.765617959905
 20
33.678589555187
 30
0.0
 11
-87.61467047477
 21
33.827636047032
 31
0.0
  0
LINE
  5
1F3
330
122
100
AcDbEntity
  8
FREI LASSEN
  6
AUSGEZOGEN
 62
    18
420
        0
370
    18
100
AcDbLine
 10
-86.859933049093
 20
34.572868506257
 30
0.0
 11
-86.708985563957
 21
34.721914998102
 31
0.0
  0
LINE
  5
1F4
330
122
100
AcDbEntity
  8
FREI LASSEN
  6
AUSGEZOGEN
 62
    18
420
        0
370
    18
100
AcDbLine
 10
-92.893079971283
 20
29.360993774908
 30
0.0
 11
-92.742132486147
 21
29.510040266753
 31
0.0
  0
LINE
  5
1F5
330
122
100
AcDbEntity
  8
FREI LASSEN
  6
AUSGEZOGEN
 62
    18
420
        0
370
    18
100
AcDbLine
 10
-92.289290030741
 20
29.957179742288
 30
0.0
 11
-92.138342545606
 21
30.106226234133
 31
0.0
  0
LINE
  5
1F6
330
122
100
AcDbEntity
  8
FREI LASSEN
  6
AUSGEZOGEN
 62
    18
420
        0
370
    18
100
AcDbLine
 10
-91.383605119929
 20
30.851458693358
 30
0.0
 11
-91.232657634793
 21
31.000505185203
 31
0.0
  0
LINE
  5
1F7
330
122
100
AcDbEntity
  8
FREI LASSEN
  6
AUSGEZOGEN
 62
    18
420
        0
370
    18
100
AcDbLine
 10
-90.779815179387
 20
31.447644660738
 30
0.0
 11
-90.628867694252
 21
31.596691152583
 31
0.0
  0
LINE
  5
1F8
330
122
100
AcDbEntity
  8
FREI LASSEN
  6
AUSGEZOGEN
 62
    18
420
        0
370
    18
100
AcDbLine
 10
-89.874130268575
 20
32.341923611808
 30
0.0
 11
-89.723182783439
 21
32.490970103653
 31
0.0
  0
LINE
  5
1F9
330
122
100
AcDbEntity
  8
FREI LASSEN
  6
AUSGEZOGEN
 62
    18
420
        0
370
    18
100
AcDbLine
 10
-89.270340328033
 20
32.938109579188
 30
0.0
 11
-89.119392842898
 21
33.087156071033
 31
0.0
  0
LINE
  5
1FA
330
122
100
AcDbEntity
  8
FREI LASSEN
  6
AUSGEZOGEN
 62
    18
420
        0
370
    18
100
AcDbLine
 10
-88.364655417221
 20
33.832388530258
 30
0.0
 11
-88.213707932085
 21
33.981435022103
 31
0.0
  0
LINE
  5
1FB
330
122
100
AcDbEntity
  8
FREI LASSEN
  6
AUSGEZOGEN
 62
    18
420
        0
370
    18
100
AcDbLine
 10
-87.760865476679
 20
34.428574497638
 30
0.0
 11
-87.609917991544
 21
34.577620989483
 31
0.0
  0
LINE
  5
1FC
330
122
100
AcDbEntity
  8
FREI LASSEN
  6
AUSGEZOGEN
 62
    18
420
        0
370
    18
100
AcDbLine
 10
-93.673495042618
 20
29.335699358362
 30
0.0
 11
-93.643064913734
 21
29.365746258134
 31
0.0
  0
LINE
  5
1FD
330
122
100
AcDbEntity
  8
FREI LASSEN
  6
AUSGEZOGEN
 62
    18
420
        0
370
    18
100
AcDbLine
 10
-92.888327488057
 20
30.110978717359
 30
0.0
 11
-92.737380002921
 21
30.260025209204
 31
0.0
  0
LINE
  5
1FE
330
122
100
AcDbEntity
  8
FREI LASSEN
  6
AUSGEZOGEN
 62
    18
420
        0
370
    18
100
AcDbLine
 10
-92.284537547515
 20
30.707164684739
 30
0.0
 11
-92.13359006238
 21
30.856211176584
 31
0.0
  0
LINE
  5
1FF
330
122
100
AcDbEntity
  8
FREI LASSEN
  6
AUSGEZOGEN
 62
    18
420
        0
370
    18
100
AcDbLine
 10
-91.378852636703
 20
31.601443635809
 30
0.0
 11
-91.227905151567
 21
31.750490127654
 31
0.0
  0
LINE
  5
200
330
122
100
AcDbEntity
  8
FREI LASSEN
  6
AUSGEZOGEN
 62
    18
420
        0
370
    18
100
AcDbLine
 10
-90.775062696161
 20
32.197629603189
 30
0.0
 11
-90.624115211026
 21
32.346676095034
 31
0.0
  0
LINE
  5
201
330
122
100
AcDbEntity
  8
FREI LASSEN
  6
AUSGEZOGEN
 62
    18
420
        0
370
    18
100
AcDbLine
 10
-89.869377785349
 20
33.091908554259
 30
0.0
 11
-89.718430300213
 21
33.240955046104
 31
0.0
  0
LINE
  5
202
330
122
100
AcDbEntity
  8
FREI LASSEN
  6
AUSGEZOGEN
 62
    18
420
        0
370
    18
100
AcDbLine
 10
-89.265587844807
 20
33.688094521639
 30
0.0
 11
-89.114640359672
 21
33.837141013484
 31
0.0
  0
LINE
  5
203
330
122
100
AcDbEntity
  8
FREI LASSEN
  6
AUSGEZOGEN
 62
    18
420
        0
370
    18
100
AcDbLine
 10
-88.359902933995
 20
34.582373472709
 30
0.0
 11
-88.20895544886
 21
34.731419964554
 31
0.0
  0
LINE
  5
204
330
122
100
AcDbEntity
  8
FREI LASSEN
  6
AUSGEZOGEN
 62
    18
420
        0
370
    18
100
AcDbLine
 10
-93.789259915643
 20
29.96668470874
 30
0.0
 11
-93.638312430508
 21
30.115731200585
 31
0.0
  0
LINE
  5
205
330
122
100
AcDbEntity
  8
FREI LASSEN
  6
AUSGEZOGEN
 62
    18
420
        0
370
    18
100
AcDbLine
 10
-92.883575004831
 20
30.86096365981
 30
0.0
 11
-92.768364982172
 21
30.974722757467
 31
0.0
  0
LINE
  5
206
330
122
100
AcDbEntity
  8
FREI LASSEN
  6
AUSGEZOGEN
 62
    18
420
        0
370
    18
100
AcDbLine
 10
-91.374100153477
 20
32.35142857826
 30
0.0
 11
-91.223152668341
 21
32.500475070105
 31
0.0
  0
LINE
  5
207
330
122
100
AcDbEntity
  8
FREI LASSEN
  6
AUSGEZOGEN
 62
    18
420
        0
370
    18
100
AcDbLine
 10
-90.770310212935
 20
32.94761454564
 30
0.0
 11
-90.6193627278
 21
33.096661037485
 31
0.0
  0
LINE
  5
208
330
122
100
AcDbEntity
  8
FREI LASSEN
  6
AUSGEZOGEN
 62
    18
420
        0
370
    18
100
AcDbLine
 10
-89.864625302123
 20
33.84189349671
 30
0.0
 11
-89.713677816987
 21
33.990939988555
 31
0.0
  0
LINE
  5
209
330
122
100
AcDbEntity
  8
FREI LASSEN
  6
AUSGEZOGEN
 62
    18
420
        0
370
    18
100
AcDbLine
 10
-89.260835361581
 20
34.43807946409
 30
0.0
 11
-89.109887876446
 21
34.587125955935
 31
0.0
  0
LINE
  5
20A
330
122
100
AcDbEntity
  8
FREI LASSEN
  6
AUSGEZOGEN
 62
    18
420
        0
370
    18
100
AcDbLine
 10
-91.369347670251
 20
33.101413520711
 30
0.0
 11
-91.218400185115
 21
33.250460012556
 31
0.0
  0
LINE
  5
20B
330
122
100
AcDbEntity
  8
FREI LASSEN
  6
AUSGEZOGEN
 62
    18
420
        0
370
    18
100
AcDbLine
 10
-90.765557729709
 20
33.697599488091
 30
0.0
 11
-90.614610244574
 21
33.846645979936
 31
0.0
  0
LINE
  5
20C
330
122
100
AcDbEntity
  8
FREI LASSEN
  6
AUSGEZOGEN
 62
    18
420
        0
370
    18
100
AcDbLine
 10
-89.859872818897
 20
34.591878439161
 30
0.0
 11
-89.708925333761
 21
34.740924931006
 31
0.0
  0
LINE
  5
20D
330
122
100
AcDbEntity
  8
FREI LASSEN
  6
AUSGEZOGEN
 62
    18
420
        0
370
    18
100
AcDbLine
 10
-92.270280097837
 20
32.957119512092
 30
0.0
 11
-92.119332612702
 21
33.106166003937
 31
0.0
  0
LINE
  5
20E
330
122
100
AcDbEntity
  8
FREI LASSEN
  6
AUSGEZOGEN
 62
    18
420
        0
370
    18
100
AcDbLine
 10
-91.364595187025
 20
33.851398463162
 30
0.0
 11
-91.213647701889
 21
34.000444955007
 31
0.0
  0
LINE
  5
20F
330
122
100
AcDbEntity
  8
FREI LASSEN
  6
AUSGEZOGEN
 62
    18
420
        0
370
    18
100
AcDbLine
 10
-90.760805246483
 20
34.447584430542
 30
0.0
 11
-90.609857761348
 21
34.596630922387
 31
0.0
  0
LINE
  5
210
330
122
100
AcDbEntity
  8
FREI LASSEN
  6
AUSGEZOGEN
 62
    18
420
        0
370
    18
100
AcDbLine
 10
-92.869317555153
 20
33.110918487163
 30
0.0
 11
-92.718370070017
 21
33.259964979008
 31
0.0
  0
LINE
  5
211
330
122
100
AcDbEntity
  8
FREI LASSEN
  6
AUSGEZOGEN
 62
    18
420
        0
370
    18
100
AcDbLine
 10
-92.265527614611
 20
33.707104454543
 30
0.0
 11
-92.114580129476
 21
33.856150946388
 31
0.0
  0
LINE
  5
212
330
122
100
AcDbEntity
  8
FREI LASSEN
  6
AUSGEZOGEN
 62
    18
420
        0
370
    18
100
AcDbLine
 10
-91.359842703799
 20
34.601383405613
 30
0.0
 11
-91.208895218663
 21
34.750429897458
 31
0.0
  0
LINE
  5
213
330
122
100
AcDbEntity
  8
FREI LASSEN
  6
AUSGEZOGEN
 62
    18
420
        0
370
    18
100
AcDbLine
 10
-92.864565071927
 20
33.860903429614
 30
0.0
 11
-92.713617586791
 21
34.009949921459
 31
0.0
  0
LINE
  5
214
330
122
100
AcDbEntity
  8
FREI LASSEN
  6
AUSGEZOGEN
 62
    18
420
        0
370
    18
100
AcDbLine
 10
-92.260775131385
 20
34.457089396994
 30
0.0
 11
-92.10982764625
 21
34.606135888839
 31
0.0
  0
LINE
  5
215
330
122
100
AcDbEntity
  8
FREI LASSEN
  6
AUSGEZOGEN
 62
    18
420
        0
370
    18
100
AcDbLine
 10
-93.765497499513
 20
33.716609420995
 30
0.0
 11
-93.614550014378
 21
33.86565591284
 31
0.0
  0
LINE
  5
216
330
122
100
AcDbEntity
  8
FREI LASSEN
  6
AUSGEZOGEN
 62
    18
420
        0
370
    18
100
AcDbLine
 10
-92.859812588701
 20
34.610888372065
 30
0.0
 11
-92.708865103565
 21
34.75993486391
 31
0.0
  0
LINE
  5
217
330
122
100
AcDbEntity
  8
FREI LASSEN
  6
AUSGEZOGEN
 62
    18
420
        0
370
    18
100
AcDbLine
 10
-93.726257158212
 20
34.500647890424
 30
0.0
 11
-93.609797531152
 21
34.615640855291
 31
0.0
  0
ENDBLK
  5
124
330
122
100
AcDbEntity
  8
0
100
AcDbBlockEnd
  0
BLOCK
  5
21B
330
21A
100
AcDbEntity
  8
0
100
AcDbBlockBegin
  2
*X4
 70
     1
 10
0.0
 20
0.0
 30
0.0
  3
*X4
  1

  0
LINE
  5
21D
330
21A
100
AcDbEntity
  8
FREI LASSEN
  6
AUSGEZOGEN
 62
    18
420
        0
370
    18
100
AcDbLine
 10
-93.303735417315
 20
25.091360199858
 30
0.0
 11
-94.079169406031
 21
25.866794188575
 31
0.0
  0
LINE
  5
21E
330
21A
100
AcDbEntity
  8
FREI LASSEN
  6
AUSGEZOGEN
 62
    18
420
        0
370
    18
100
AcDbLine
 10
-93.079169406031
 20
26.988114532135
 30
0.0
 11
-93.997922852962
 21
27.906867979065
 31
0.0
  0
LINE
  5
21F
330
21A
100
AcDbEntity
  8
FREI LASSEN
  6
AUSGEZOGEN
 62
    18
420
        0
370
    18
100
AcDbLine
 10
-94.079169406031
 20
27.309027723433
 30
0.0
 11
-93.481329150399
 21
27.906867979065
 31
0.0
  0
LINE
  5
220
330
21A
100
AcDbEntity
  8
FREI LASSEN
  6
AUSGEZOGEN
 62
    18
420
        0
370
    18
100
AcDbLine
 10
-94.079169406031
 20
25.187707379873
 30
0.0
 11
-93.482314838175
 21
25.78456194773
 31
0.0
  0
ENDBLK
  5
21C
330
21A
100
AcDbEntity
  8
0
100
AcDbBlockEnd
  0
BLOCK
  5
229
330
228
100
AcDbEntity
  8
0
100
AcDbBlockBegin
  2
Montagefuss Typ 200 G (25mm)_001_001_nNn04
 70
     0
 10
0.0
 20
0.0
 30
0.0
  3
Montagefuss Typ 200 G (25mm)_001_001_nNn04
  1

  0
LINE
  5
22B
330
228
100
AcDbEntity
  8
FREI LASSEN
  6
AUSGEZOGEN
 62
    18
420
        0
370
    18
100
AcDbLine
 10
-85.621850393701
 20
115.054531446152
 30
0.0
 11
-67.366036440212
 21
115.054531446152
 31
0.0
  0
LINE
  5
22C
330
228
100
AcDbEntity
  8
FREI LASSEN
  6
AUSGEZOGEN
 62
    18
420
        0
370
    18
100
AcDbLine
 10
-66.784641091375
 20
92.961508190338
 30
0.0
 11
-66.784641091375
 21
114.473136097315
 31
0.0
  0
LINE
  5
22D
330
228
100
AcDbEntity
  8
FREI LASSEN
  6
AUSGEZOGEN
 62
    18
420
        0
370
    18
100
AcDbLine
 10
-65.040455044864
 20
91.217322143827
 30
0.0
 11
-41.784641091375
 21
91.217322143827
 31
0.0
  0
LINE
  5
22E
330
228
100
AcDbEntity
  8
FREI LASSEN
  6
AUSGEZOGEN
 62
    18
420
        0
370
    18
100
AcDbLine
 10
-65.040455044864
 20
92.380112841501
 30
0.0
 11
-41.784641091375
 21
92.380112841501
 31
0.0
  0
LINE
  5
22F
330
228
100
AcDbEntity
  8
FREI LASSEN
  6
AUSGEZOGEN
 62
    18
420
        0
370
    18
100
AcDbLine
 10
-65.621850393701
 20
92.961508190338
 30
0.0
 11
-65.621850393701
 21
114.473136097315
 31
0.0
  0
LINE
  5
230
330
228
100
AcDbEntity
  8
FREI LASSEN
  6
AUSGEZOGEN
 62
    18
420
        0
370
    18
100
AcDbLine
 10
-85.621850393701
 20
116.217322143827
 30
0.0
 11
-67.366036440212
 21
116.217322143827
 31
0.0
  0
LINE
  5
231
330
228
100
AcDbEntity
  8
FREI LASSEN
  6
AUSGEZOGEN
 62
    18
420
        0
370
    18
100
AcDbLine
 10
-85.621850393701
 20
115.054531446152
 30
0.0
 11
-85.621850393701
 21
116.217322143827
 31
0.0
  0
ARC
  5
232
330
228
100
AcDbEntity
  8
FREI LASSEN
  6
AUSGEZOGEN
 62
    18
420
        0
370
    18
100
AcDbCircle
 10
-67.366036440212
 20
114.473136097315
 30
0.0
 40
0.5813953488372094
100
AcDbArc
 50
0.0
 51
90.0
  0
ARC
  5
233
330
228
100
AcDbEntity
  8
FREI LASSEN
  6
AUSGEZOGEN
 62
    18
420
        0
370
    18
100
AcDbCircle
 10
-65.040455044864
 20
92.961508190338
 30
0.0
 40
0.5813953488372094
100
AcDbArc
 50
180.0
 51
270.0
  0
ARC
  5
234
330
228
100
AcDbEntity
  8
FREI LASSEN
  6
AUSGEZOGEN
 62
    18
420
        0
370
    18
100
AcDbCircle
 10
-67.366036440212
 20
114.473136097315
 30
0.0
 40
1.744186046511628
100
AcDbArc
 50
0.0
 51
90.0
  0
ARC
  5
235
330
228
100
AcDbEntity
  8
FREI LASSEN
  6
AUSGEZOGEN
 62
    18
420
        0
370
    18
100
AcDbCircle
 10
-65.040455044864
 20
92.961508190338
 30
0.0
 40
1.744186046511628
100
AcDbArc
 50
180.0
 51
270.0
  0
ENDBLK
  5
22A
330
228
100
AcDbEntity
  8
0
100
AcDbBlockEnd
  0
BLOCK
  5
23D
330
23C
100
AcDbEntity
  8
0
100
AcDbBlockBegin
  2
Montagefuss Typ 200 G (25mm)_001_001_nNn05
 70
     0
 10
0.0
 20
0.0
 30
0.0
  3
Montagefuss Typ 200 G (25mm)_001_001_nNn05
  1

  0
LINE
  5
23F
330
23C
100
AcDbEntity
  8
FREI LASSEN
  6
AUSGEZOGEN
 62
    18
420
        0
370
    18
100
AcDbLine
 10
-214.771850393701
 20
115.054531446152
 30
0.0
 11
-233.027664347189
 21
115.054531446152
 31
0.0
  0
LINE
  5
240
330
23C
100
AcDbEntity
  8
FREI LASSEN
  6
AUSGEZOGEN
 62
    18
420
        0
370
    18
100
AcDbLine
 10
-233.609059696026
 20
92.961508190338
 30
0.0
 11
-233.609059696026
 21
114.473136097315
 31
0.0
  0
LINE
  5
241
330
23C
100
AcDbEntity
  8
FREI LASSEN
  6
AUSGEZOGEN
 62
    18
420
        0
370
    18
100
AcDbLine
 10
-235.353245742538
 20
91.217322143827
 30
0.0
 11
-258.609059696026
 21
91.217322143827
 31
0.0
  0
LINE
  5
242
330
23C
100
AcDbEntity
  8
FREI LASSEN
  6
AUSGEZOGEN
 62
    18
420
        0
370
    18
100
AcDbLine
 10
-235.353245742538
 20
92.380112841501
 30
0.0
 11
-258.609059696026
 21
92.380112841501
 31
0.0
  0
LINE
  5
243
330
23C
100
AcDbEntity
  8
FREI LASSEN
  6
AUSGEZOGEN
 62
    18
420
        0
370
    18
100
AcDbLine
 10
-234.771850393701
 20
92.961508190338
 30
0.0
 11
-234.771850393701
 21
114.473136097315
 31
0.0
  0
LINE
  5
244
330
23C
100
AcDbEntity
  8
FREI LASSEN
  6
AUSGEZOGEN
 62
    18
420
        0
370
    18
100
AcDbLine
 10
-214.771850393701
 20
116.217322143827
 30
0.0
 11
-233.027664347189
 21
116.217322143827
 31
0.0
  0
LINE
  5
245
330
23C
100
AcDbEntity
  8
FREI LASSEN
  6
AUSGEZOGEN
 62
    18
420
        0
370
    18
100
AcDbLine
 10
-214.771850393701
 20
115.054531446152
 30
0.0
 11
-214.771850393701
 21
116.217322143827
 31
0.0
  0
ARC
  5
246
330
23C
100
AcDbEntity
  8
FREI LASSEN
  6
AUSGEZOGEN
 62
    18
420
        0
370
    18
100
AcDbCircle
 10
-233.027664347189
 20
114.473136097315
 30
0.0
 40
0.5813953488372094
100
AcDbArc
 50
90.0
 51
180.0
  0
ARC
  5
247
330
23C
100
AcDbEntity
  8
FREI LASSEN
  6
AUSGEZOGEN
 62
    18
420
        0
370
    18
100
AcDbCircle
 10
-235.353245742538
 20
92.961508190338
 30
0.0
 40
0.5813953488372094
100
AcDbArc
 50
270.0
 51
0.0
  0
ARC
  5
248
330
23C
100
AcDbEntity
  8
FREI LASSEN
  6
AUSGEZOGEN
 62
    18
420
        0
370
    18
100
AcDbCircle
 10
-233.027664347189
 20
114.473136097315
 30
0.0
 40
1.744186046511628
100
AcDbArc
 50
90.0
 51
180.0
  0
ARC
  5
249
330
23C
100
AcDbEntity
  8
FREI LASSEN
  6
AUSGEZOGEN
 62
    18
420
        0
370
    18
100
AcDbCircle
 10
-235.353245742538
 20
92.961508190338
 30
0.0
 40
1.744186046511628
100
AcDbArc
 50
270.0
 51
0.0
  0
ENDBLK
  5
23E
330
23C
100
AcDbEntity
  8
0
100
AcDbBlockEnd
  0
ENDSEC
  0
SECTION
  2
ENTITIES
  0
LINE
  5
72
330
1F
100
AcDbEntity
  8
FREI LASSEN
  6
AUSGEZOGEN
 62
    18
420
        0
370
    18
100
AcDbLine
 10
-0.16453138137
 20
24.906867979065
 30
0.0
 11
-0.16453138137
 21
27.906867979065
 31
0.0
  0
LINE
  5
73
330
1F
100
AcDbEntity
  8
FREI LASSEN
  6
AUSGEZOGEN
 62
    18
420
        0
370
    18
100
AcDbLine
 10
-300.16453138137
 20
24.906867979065
 30
0.0
 11
-300.16453138137
 21
27.906867979065
 31
0.0
  0
LINE
  5
74
330
1F
100
AcDbEntity
  8
FREI LASSEN
  6
AUSGEZOGEN
 62
    18
420
        0
370
    18
100
AcDbLine
 10
-90.16453138137
 20
27.906867979065
 30
0.0
 11
-0.16453138137
 21
27.906867979065
 31
0.0
  0
LINE
  5
75
330
1F
100
AcDbEntity
  8
FREI LASSEN
  6
DASHED
 62
    18
420
        0
370
    18
100
AcDbLine
 10
-300.16453138137
 20
27.906867979065
 30
0.0
 11
-93.01453138137
 21
27.906867979065
 31
0.0
  0
LINE
  5
76
330
1F
100
AcDbEntity
  8
FREI LASSEN
  6
AUSGEZOGEN
 62
    18
420
        0
370
    18
100
AcDbLine
 10
-90.16453138137
 20
24.906867979065
 30
0.0
 11
-0.16453138137
 21
24.906867979065
 31
0.0
  0
LINE
  5
77
330
1F
100
AcDbEntity
  8
FREI LASSEN
  6
DASHED
 62
    18
420
        0
370
    18
100
AcDbLine
 10
-300.16453138137
 20
24.906867979065
 30
0.0
 11
-93.01453138137
 21
24.906867979065
 31
0.0
  0
LINE
  5
78
330
1F
100
AcDbEntity
  8
FREI LASSEN
  6
AUSGEZOGEN
 62
    18
420
        0
370
    18
100
AcDbLine
 10
-210.16453138137
 20
24.906867979065
 30
0.0
 11
-210.16453138137
 21
27.906867979065
 31
0.0
  0
LINE
  5
79
330
1F
100
AcDbEntity
  8
FREI LASSEN
  6
AUSGEZOGEN
 62
    18
420
        0
370
    18
100
AcDbLine
 10
-90.16453138137
 20
24.906867979065
 30
0.0
 11
-90.16453138137
 21
27.906867979065
 31
0.0
  0
LINE
  5
7A
330
1F
100
AcDbEntity
  8
FREI LASSEN
  6
AUSGEZOGEN
 62
    18
420
        0
370
    18
100
AcDbLine
 10
-214.66453138137
 20
-143.093132020935
 30
0.0
 11
-214.66453138137
 21
24.906867979065
 31
0.0
  0
LINE
  5
7B
330
1F
100
AcDbEntity
  8
FREI LASSEN
  6
AUSGEZOGEN
 62
    18
420
        0
370
    18
100
AcDbLine
 10
-212.66453138137
 20
-48.781888447803
 30
0.0
 11
-212.66453138137
 21
24.906867979065
 31
0.0
  0
LINE
  5
7C
330
1F
100
AcDbEntity
  8
FREI LASSEN
  6
AUSGEZOGEN
 62
    18
420
        0
370
    18
100
AcDbLine
 10
-286.652499221704
 20
-52.65943353598
 30
0.0
 11
-289.975832443131
 21
10.753541920936
 31
0.0
  0
LINE
  5
7D
330
1F
100
AcDbEntity
  8
FREI LASSEN
  6
AUSGEZOGEN
 62
    18
420
        0
370
    18
100
AcDbLine
 10
-218.66453138137
 20
24.906867979065
 30
0.0
 11
-214.66453138137
 21
20.906867979065
 31
0.0
  0
LINE
  5
7E
330
1F
100
AcDbEntity
  8
FREI LASSEN
  6
AUSGEZOGEN
 62
    18
420
        0
370
    18
100
AcDbLine
 10
-85.66453138137
 20
20.906867979065
 30
0.0
 11
-81.66453138137
 21
24.906867979065
 31
0.0
  0
INSERT
  5
9C
330
1F
100
AcDbEntity
  8
0
100
AcDbBlockReference
  2
DICHTR114_nNn00
 10
0.0
 20
0.0
 30
0.0
  0
HATCH
  5
9D
330
1F
100
AcDbEntity
  8
FREI LASSEN
  6
AUSGEZOGEN
 62
    18
420
        0
370
    18
100
AcDbHatch
 10
0.0
 20
0.0
 30
0.0
210
0.0
220
0.0
230
1.0
  2
MegaCAD_TYP12
 70
     0
 71
     0
 91
        1
 92
        2
 72
     1
 73
     1
 93
        6
 10
-206.3145313813703
 20
27.90686797906517
 42
0.0
 10
-207.3145313813703
 20
27.90686797906517
 42
0.0
 10
-207.3145313813703
 20
26.78484104872069
 42
-0.3115580112439758
 10
-206.9265160049928
 20
25.71719780560289
 42
0.0
 10
-207.1381490140174
 20
24.9068679790652
 42
0.0
 10
-206.3145313813703
 20
24.9068679790652
 42
0.0
 97
        0
 75
     0
 76
     1
 52
0.0
 41
0.5
 77
     0
 78
     2
 53
45.0
 43
0.0
 44
0.0
 45
-1.060660171779821
 46
1.060660171779821
 79
     0
 53
135.0
 43
0.0
 44
0.0
 45
-1.060660171779821
 46
-1.060660171779821
 79
     0
 98
        0
  0
LINE
  5
9E
330
1F
100
AcDbEntity
  8
FREI LASSEN
  6
AUSGEZOGEN
 62
    18
420
        0
370
    18
100
AcDbLine
 10
-214.66453138137
 20
14.700439964499
 30
0.0
 11
-289.975832443131
 21
10.753541920936
 31
0.0
  0
LINE
  5
9F
330
1F
100
AcDbEntity
  8
FREI LASSEN
  6
AUSGEZOGEN
 62
    18
420
        0
370
    18
100
AcDbLine
 10
-212.66453138137
 20
-48.781888447803
 30
0.0
 11
-286.652499221704
 21
-52.65943353598
 31
0.0
  0
LINE
  5
A0
330
1F
100
AcDbEntity
  8
FREI LASSEN
  6
AUSGEZOGEN
 62
    18
420
        0
370
    18
100
AcDbLine
 10
-211.570302977907
 20
-46.721797675153
 30
0.0
 11
-286.75717113419
 21
-50.662174466471
 31
0.0
  0
LINE
  5
A1
330
1F
100
AcDbEntity
  8
FREI LASSEN
  6
AUSGEZOGEN
 62
    18
420
        0
370
    18
100
AcDbLine
 10
-214.66453138137
 20
12.697695272503
 30
0.0
 11
-289.871160530645
 21
8.756282851427
 31
0.0
  0
LINE
  5
A2
330
1F
100
AcDbEntity
  8
FREI LASSEN
  6
AUSGEZOGEN
 62
    18
420
        0
370
    18
100
AcDbLine
 10
-207.346850393701
 20
16.217322143827
 30
0.0
 11
-93.046850393701
 21
16.217322143827
 31
0.0
  0
LINE
  5
A3
330
1F
100
AcDbEntity
  8
FREI LASSEN
  6
AUSGEZOGEN
 62
    18
420
        0
370
    18
100
AcDbLine
 10
-222.196850393701
 20
116.217322143827
 30
0.0
 11
-78.196850393701
 21
116.217322143827
 31
0.0
  0
LINE
  5
A4
330
1F
100
AcDbEntity
  8
FREI LASSEN
  6
AUSGEZOGEN
 62
    18
420
        0
370
    18
100
AcDbLine
 10
-207.346850393701
 20
16.217322143827
 30
0.0
 11
-207.346850393701
 21
116.217322143827
 31
0.0
  0
LINE
  5
A5
330
1F
100
AcDbEntity
  8
FREI LASSEN
  6
AUSGEZOGEN
 62
    18
420
        0
370
    18
100
AcDbLine
 10
-93.046850393701
 20
16.217322143827
 30
0.0
 11
-93.046850393701
 21
116.217322143827
 31
0.0
  0
LINE
  5
A6
330
1F
100
AcDbEntity
  8
FREI LASSEN
  6
AUSGEZOGEN
 62
    18
420
        0
370
    18
100
AcDbLine
 10
-225.196850393701
 20
132.217322143827
 30
0.0
 11
-75.196850393701
 21
132.217322143827
 31
0.0
  0
LINE
  5
A7
330
1F
100
AcDbEntity
  8
FREI LASSEN
  6
AUSGEZOGEN
 62
    18
420
        0
370
    18
100
AcDbLine
 10
-225.196850393701
 20
119.217322143827
 30
0.0
 11
-225.196850393701
 21
132.217322143827
 31
0.0
  0
LINE
  5
A8
330
1F
100
AcDbEntity
  8
FREI LASSEN
  6
AUSGEZOGEN
 62
    18
420
        0
370
    18
100
AcDbLine
 10
-75.196850393701
 20
119.217322143827
 30
0.0
 11
-75.196850393701
 21
132.217322143827
 31
0.0
  0
LINE
  5
A9
330
1F
100
AcDbEntity
  8
FREI LASSEN
  6
AUSGEZOGEN
 62
    18
420
        0
370
    18
100
AcDbLine
 10
-94.046850393701
 20
16.217322143827
 30
0.0
 11
-94.046850393701
 21
116.717322143827
 31
0.0
  0
LINE
  5
AA
330
1F
100
AcDbEntity
  8
FREI LASSEN
  6
AUSGEZOGEN
 62
    18
420
        0
370
    18
100
AcDbLine
 10
-206.346850393701
 20
16.217322143827
 30
0.0
 11
-206.346850393701
 21
116.717322143827
 31
0.0
  0
LINE
  5
AB
330
1F
100
AcDbEntity
  8
FREI LASSEN
  6
AUSGEZOGEN
 62
    18
420
        0
370
    18
100
AcDbLine
 10
-93.046850393701
 20
117.717322143827
 30
0.0
 11
-78.196850393701
 21
117.717322143827
 31
0.0
  0
LINE
  5
AC
330
1F
100
AcDbEntity
  8
FREI LASSEN
  6
AUSGEZOGEN
 62
    18
420
        0
370
    18
100
AcDbLine
 10
-76.696850393701
 20
119.217322143827
 30
0.0
 11
-76.696850393701
 21
132.217322143827
 31
0.0
  0
LINE
  5
AD
330
1F
100
AcDbEntity
  8
FREI LASSEN
  6
AUSGEZOGEN
 62
    18
420
        0
370
    18
100
AcDbLine
 10
-223.696850393701
 20
119.217322143827
 30
0.0
 11
-223.696850393701
 21
132.217322143827
 31
0.0
  0
LINE
  5
AE
330
1F
100
AcDbEntity
  8
FREI LASSEN
  6
AUSGEZOGEN
 62
    18
420
        0
370
    18
100
AcDbLine
 10
-222.196850393701
 20
117.717322143827
 30
0.0
 11
-207.346850393701
 21
117.717322143827
 31
0.0
  0
ARC
  5
AF
330
1F
100
AcDbEntity
  8
FREI LASSEN
  6
AUSGEZOGEN
 62
    18
420
        0
370
    18
100
AcDbCircle
 10
-78.196850393701
 20
119.217322143827
 30
0.0
 40
1.5
100
AcDbArc
 50
270.0
 51
0.0
  0
ARC
  5
B0
330
1F
100
AcDbEntity
  8
FREI LASSEN
  6
AUSGEZOGEN
 62
    18
420
        0
370
    18
100
AcDbCircle
 10
-222.196850393701
 20
119.217322143827
 30
0.0
 40
1.5
100
AcDbArc
 50
180.0
 51
270.0
  0
ARC
  5
B1
330
1F
100
AcDbEntity
  8
FREI LASSEN
  6
AUSGEZOGEN
 62
    18
420
        0
370
    18
100
AcDbCircle
 10
-222.196850393701
 20
119.217322143827
 30
0.0
 40
3.0
100
AcDbArc
 50
180.0
 51
270.0
  0
ARC
  5
B2
330
1F
100
AcDbEntity
  8
FREI LASSEN
  6
AUSGEZOGEN
 62
    18
420
        0
370
    18
100
AcDbCircle
 10
-78.196850393701
 20
119.217322143827
 30
0.0
 40
3.0
100
AcDbArc
 50
270.0
 51
0.0
  0
ARC
  5
B3
330
1F
100
AcDbEntity
  8
FREI LASSEN
  6
AUSGEZOGEN
 62
    18
420
        0
370
    18
100
AcDbCircle
 10
-93.046850393701
 20
116.717322143827
 30
0.0
 40
0.9999999999999999
100
AcDbArc
 50
90.0
 51
180.0
  0
ARC
  5
B4
330
1F
100
AcDbEntity
  8
FREI LASSEN
  6
AUSGEZOGEN
 62
    18
420
        0
370
    18
100
AcDbCircle
 10
-207.346850393701
 20
116.717322143827
 30
0.0
 40
0.9999999999999999
100
AcDbArc
 50
0.0
 51
90.0
  0
LINE
  5
B5
330
1F
100
AcDbEntity
  8
FREI LASSEN
  6
AUSGEZOGEN
 62
    18
420
        0
370
    18
100
AcDbLine
 10
-77.196850393701
 20
118.099288155077
 30
0.0
 11
-77.196850393701
 21
127.717322143827
 31
0.0
  0
LINE
  5
B6
330
1F
100
AcDbEntity
  8
FREI LASSEN
  6
AUSGEZOGEN
 62
    18
420
        0
370
    18
100
AcDbLine
 10
-223.196850393701
 20
118.099288155077
 30
0.0
 11
-223.196850393701
 21
127.717322143827
 31
0.0
  0
LINE
  5
B7
330
1F
100
AcDbEntity
  8
FREI LASSEN
  6
AUSGEZOGEN
 62
    18
420
        0
370
    18
100
AcDbLine
 10
-221.196850393701
 20
117.717322143827
 30
0.0
 11
-221.196850393701
 21
127.717322143827
 31
0.0
  0
LINE
  5
B8
330
1F
100
AcDbEntity
  8
FREI LASSEN
  6
AUSGEZOGEN
 62
    18
420
        0
370
    18
100
AcDbLine
 10
-79.196850393701
 20
117.717322143827
 30
0.0
 11
-79.196850393701
 21
127.717322143827
 31
0.0
  0
LINE
  5
B9
330
1F
100
AcDbEntity
  8
FREI LASSEN
  6
AUSGEZOGEN
 62
    18
420
        0
370
    18
100
AcDbLine
 10
-219.196850393701
 20
131.717322143827
 30
0.0
 11
-81.196850393701
 21
131.717322143827
 31
0.0
  0
LINE
  5
BA
330
1F
100
AcDbEntity
  8
FREI LASSEN
  6
AUSGEZOGEN
 62
    18
420
        0
370
    18
100
AcDbLine
 10
-219.196850393701
 20
129.717322143827
 30
0.0
 11
-81.196850393701
 21
129.717322143827
 31
0.0
  0
ARC
  5
BB
330
1F
100
AcDbEntity
  8
FREI LASSEN
  6
AUSGEZOGEN
 62
    18
420
        0
370
    18
100
AcDbCircle
 10
-81.196850393701
 20
127.717322143827
 30
0.0
 40
2.0
100
AcDbArc
 50
0.0
 51
90.0
  0
ARC
  5
BC
330
1F
100
AcDbEntity
  8
FREI LASSEN
  6
AUSGEZOGEN
 62
    18
420
        0
370
    18
100
AcDbCircle
 10
-219.196850393701
 20
127.717322143827
 30
0.0
 40
2.0
100
AcDbArc
 50
90.0
 51
180.0
  0
ARC
  5
BD
330
1F
100
AcDbEntity
  8
FREI LASSEN
  6
AUSGEZOGEN
 62
    18
420
        0
370
    18
100
AcDbCircle
 10
-219.196850393701
 20
127.717322143827
 30
0.0
 40
4.0
100
AcDbArc
 50
90.0
 51
180.0
  0
ARC
  5
BE
330
1F
100
AcDbEntity
  8
FREI LASSEN
  6
AUSGEZOGEN
 62
    18
420
        0
370
    18
100
AcDbCircle
 10
-81.196850393701
 20
127.717322143827
 30
0.0
 40
4.0
100
AcDbArc
 50
0.0
 51
90.0
  0
LINE
  5
BF
330
1F
100
AcDbEntity
  8
FREI LASSEN
  6
AUSGEZOGEN
 62
    18
420
        0
370
    18
100
AcDbLine
 10
-156.696850393701
 20
129.717322143827
 30
0.0
 11
-156.696850393701
 21
131.717322143827
 31
0.0
  0
LINE
  5
C0
330
1F
100
AcDbEntity
  8
FREI LASSEN
  6
AUSGEZOGEN
 62
    18
420
        0
370
    18
100
AcDbLine
 10
-143.696850393701
 20
129.717322143827
 30
0.0
 11
-143.696850393701
 21
131.717322143827
 31
0.0
  0
LINE
  5
C1
330
1F
100
AcDbEntity
  8
FREI LASSEN
  6
AUSGEZOGEN
 62
    18
420
        0
370
    18
100
AcDbLine
 10
-135.696850393701
 20
129.717322143827
 30
0.0
 11
-135.696850393701
 21
131.717322143827
 31
0.0
  0
LINE
  5
C2
330
1F
100
AcDbEntity
  8
FREI LASSEN
  6
AUSGEZOGEN
 62
    18
420
        0
370
    18
100
AcDbLine
 10
-164.696850393701
 20
129.717322143827
 30
0.0
 11
-164.696850393701
 21
131.717322143827
 31
0.0
  0
LINE
  5
C3
330
1F
100
AcDbEntity
  8
FREI LASSEN
  6
AUSGEZOGEN
 62
    18
420
        0
370
    18
100
AcDbLine
 10
-122.696850393701
 20
129.717322143827
 30
0.0
 11
-122.696850393701
 21
131.717322143827
 31
0.0
  0
LINE
  5
C4
330
1F
100
AcDbEntity
  8
FREI LASSEN
  6
AUSGEZOGEN
 62
    18
420
        0
370
    18
100
AcDbLine
 10
-177.696850393701
 20
129.717322143827
 30
0.0
 11
-177.696850393701
 21
131.717322143827
 31
0.0
  0
LINE
  5
C5
330
1F
100
AcDbEntity
  8
FREI LASSEN
  6
AUSGEZOGEN
 62
    18
420
        0
370
    18
100
AcDbLine
 10
-114.696850393701
 20
129.717322143827
 30
0.0
 11
-114.696850393701
 21
131.717322143827
 31
0.0
  0
LINE
  5
C6
330
1F
100
AcDbEntity
  8
FREI LASSEN
  6
AUSGEZOGEN
 62
    18
420
        0
370
    18
100
AcDbLine
 10
-185.696850393701
 20
129.717322143827
 30
0.0
 11
-185.696850393701
 21
131.717322143827
 31
0.0
  0
LINE
  5
C7
330
1F
100
AcDbEntity
  8
FREI LASSEN
  6
AUSGEZOGEN
 62
    18
420
        0
370
    18
100
AcDbLine
 10
-101.696850393701
 20
129.717322143827
 30
0.0
 11
-101.696850393701
 21
131.717322143827
 31
0.0
  0
LINE
  5
C8
330
1F
100
AcDbEntity
  8
FREI LASSEN
  6
AUSGEZOGEN
 62
    18
420
        0
370
    18
100
AcDbLine
 10
-198.696850393701
 20
129.717322143827
 30
0.0
 11
-198.696850393701
 21
131.717322143827
 31
0.0
  0
LINE
  5
C9
330
1F
100
AcDbEntity
  8
FREI LASSEN
  6
AUSGEZOGEN
 62
    18
420
        0
370
    18
100
AcDbLine
 10
-93.696850393701
 20
129.717322143827
 30
0.0
 11
-93.696850393701
 21
131.717322143827
 31
0.0
  0
LINE
  5
CA
330
1F
100
AcDbEntity
  8
FREI LASSEN
  6
AUSGEZOGEN
 62
    18
420
        0
370
    18
100
AcDbLine
 10
-206.696850393701
 20
129.717322143827
 30
0.0
 11
-206.696850393701
 21
131.717322143827
 31
0.0
  0
HATCH
  5
CB
330
1F
100
AcDbEntity
  8
FREI LASSEN
  6
AUSGEZOGEN
 62
    18
420
        0
370
    18
100
AcDbHatch
 10
0.0
 20
0.0
 30
0.0
210
0.0
220
0.0
230
1.0
  2
MegaCAD_TYP12
 70
     0
 71
     0
 91
        1
 92
        2
 72
     1
 73
     1
 93
       14
 10
-94.04685039370082
 20
116.2173221438268
 42
-0.3249358518977254
 10
-93.04685039370077
 20
117.7173221438268
 42
0.0
 10
-79.19685039370091
 20
117.7173221438268
 42
0.0
 10
-78.19685039370086
 20
117.7173221438268
 42
0.1844830881382204
 10
-77.19685039370074
 20
118.0992881550769
 42
0.2134217652834352
 10
-76.6968503937008
 20
119.2173221438268
 42
-0.4142135623730986
 10
-78.19685039370086
 20
117.7173221438268
 42
0.0
 10
-93.04685039370077
 20
117.7173221438268
 42
0.4142135623730946
 10
-94.04685039370082
 20
116.7173221438268
 42
0.0
 10
-94.04685039370082
 20
116.2173221438268
 42
0.0
 10
-78.19685039370086
 20
116.2173221438268
 42
0.4142135623730931
 10
-75.1968503937008
 20
119.2173221438268
 42
-0.4142135623730931
 10
-78.19685039370086
 20
116.2173221438268
 42
0.0
 10
-93.04685039370077
 20
116.2173221438268
 42
0.0
 97
        0
 75
     0
 76
     1
 52
0.0
 41
0.5
 77
     0
 78
     2
 53
45.0
 43
0.0
 44
0.0
 45
-1.060660171779821
 46
1.060660171779821
 79
     0
 53
135.0
 43
0.0
 44
0.0
 45
-1.060660171779821
 46
-1.060660171779821
 79
     0
 98
        0
  0
LINE
  5
CC
330
1F
100
AcDbEntity
  8
FREI LASSEN
  6
AUSGEZOGEN
 62
    18
420
        0
370
    18
100
AcDbLine
 10
-151.66453138137
 20
-43.357988637548
 30
0.0
 11
-151.66453138137
 21
-39.692870494362
 31
0.0
  0
LINE
  5
CD
330
1F
100
AcDbEntity
  8
FREI LASSEN
  6
AUSGEZOGEN
 62
    18
420
        0
370
    18
100
AcDbLine
 10
-148.66453138137
 20
-43.357988637548
 30
0.0
 11
-148.66453138137
 21
-38.293947519897
 31
0.0
  0
LINE
  5
CE
330
1F
100
AcDbEntity
  8
FREI LASSEN
  6
AUSGEZOGEN
 62
    18
420
        0
370
    18
100
AcDbLine
 10
-149.736168552311
 20
-35.99581419054
 30
0.0
 11
-212.66453138137
 21
16.807351849914
 31
0.0
  0
LINE
  5
CF
330
1F
100
AcDbEntity
  8
FREI LASSEN
  6
AUSGEZOGEN
 62
    18
420
        0
370
    18
100
AcDbLine
 10
-152.736168552311
 20
-37.394737165005
 30
0.0
 11
-212.66453138137
 21
12.891129981918
 31
0.0
  0
ARC
  5
D0
330
1F
100
AcDbEntity
  8
FREI LASSEN
  6
AUSGEZOGEN
 62
    18
420
        0
370
    18
100
AcDbCircle
 10
-154.66453138137
 20
-39.692870494362
 30
0.0
 40
3.0
100
AcDbArc
 50
0.0
 51
50.0
  0
ARC
  5
D1
330
1F
100
AcDbEntity
  8
FREI LASSEN
  6
AUSGEZOGEN
 62
    18
420
        0
370
    18
100
AcDbCircle
 10
-151.66453138137
 20
-38.293947519897
 30
0.0
 40
3.0
100
AcDbArc
 50
0.0
 51
50.0
  0
LINE
  5
D2
330
1F
100
AcDbEntity
  8
FREI LASSEN
  6
AUSGEZOGEN
 62
    18
420
        0
370
    18
100
AcDbLine
 10
-183.508556805166
 20
-11.57363753159
 30
0.0
 11
-181.580193976106
 21
-9.275504202233
 31
0.0
  0
LINE
  5
D3
330
1F
100
AcDbEntity
  8
FREI LASSEN
  6
AUSGEZOGEN
 62
    18
420
        0
370
    18
100
AcDbLine
 10
-201.497349497199
 20
7.436973649617
 30
0.0
 11
-197.64062383908
 21
12.033240308331
 31
0.0
  0
LINE
  5
D4
330
1F
100
AcDbEntity
  8
FREI LASSEN
  6
AUSGEZOGEN
 62
    18
420
        0
370
    18
100
AcDbLine
 10
-161.663038455013
 20
-25.987982054083
 30
0.0
 11
-157.806312796893
 21
-21.391715395369
 31
0.0
  0
LINE
  5
D5
330
1F
100
AcDbEntity
  8
FREI LASSEN
  6
AUSGEZOGEN
 62
    18
420
        0
370
    18
100
AcDbLine
 10
-200.712880413818
 20
0.904393129086
 30
0.0
 11
-197.820336170228
 21
4.351593123122
 31
0.0
  0
LINE
  5
D6
330
1F
100
AcDbEntity
  8
FREI LASSEN
  6
AUSGEZOGEN
 62
    18
420
        0
370
    18
100
AcDbLine
 10
-168.232596025573
 20
-26.349801521623
 30
0.0
 11
-165.340051781984
 21
-22.902601527588
 31
0.0
  0
LINE
  5
D7
330
1F
100
AcDbEntity
  8
FREI LASSEN
  6
AUSGEZOGEN
 62
    18
420
        0
370
    18
100
AcDbLine
 10
-170.345844104782
 20
-26.534686771772
 30
0.0
 11
-200.527995163669
 21
-1.208854950122
 31
0.0
  0
LINE
  5
D8
330
1F
100
AcDbEntity
  8
FREI LASSEN
  6
AUSGEZOGEN
 62
    18
420
        0
370
    18
100
AcDbLine
 10
-157.806312796893
 20
-21.391715395369
 30
0.0
 11
-197.64062383908
 21
12.033240308331
 31
0.0
  0
LINE
  5
D9
330
1F
100
AcDbEntity
  8
FREI LASSEN
  6
AUSGEZOGEN
 62
    18
420
        0
370
    18
100
AcDbLine
 10
-198.459675167248
 20
-2.944381496276
 30
0.0
 11
-194.281555704285
 21
2.034907383998
 31
0.0
  0
LINE
  5
DA
330
1F
100
AcDbEntity
  8
FREI LASSEN
  6
AUSGEZOGEN
 62
    18
420
        0
370
    18
100
AcDbLine
 10
-172.414164101203
 20
-24.799160225618
 30
0.0
 11
-168.23604463824
 21
-19.819871345345
 31
0.0
  0
LINE
  5
DB
330
1F
100
AcDbEntity
  8
FREI LASSEN
  6
AUSGEZOGEN
 62
    18
420
        0
370
    18
100
AcDbLine
 10
-168.420929888389
 20
-17.706623266136
 30
0.0
 11
-192.168307625077
 21
2.219792634146
 31
0.0
  0
LINE
  5
DC
330
1F
100
AcDbEntity
  8
FREI LASSEN
  6
AUSGEZOGEN
 62
    18
420
        0
370
    18
100
AcDbLine
 10
-200.712880413818
 20
0.904393129086
 30
0.0
 11
-200.527995163669
 21
-1.208854950122
 31
0.0
  0
LINE
  5
DD
330
1F
100
AcDbEntity
  8
FREI LASSEN
  6
AUSGEZOGEN
 62
    18
420
        0
370
    18
100
AcDbLine
 10
-170.345844104782
 20
-26.534686771772
 30
0.0
 11
-168.232596025573
 21
-26.349801521623
 31
0.0
  0
LINE
  5
DE
330
1F
100
AcDbEntity
  8
FREI LASSEN
  6
AUSGEZOGEN
 62
    18
420
        0
370
    18
100
AcDbLine
 10
-168.23604463824
 20
-19.819871345345
 30
0.0
 11
-168.420929888389
 21
-17.706623266136
 31
0.0
  0
LINE
  5
DF
330
1F
100
AcDbEntity
  8
FREI LASSEN
  6
AUSGEZOGEN
 62
    18
420
        0
370
    18
100
AcDbLine
 10
-194.281555704285
 20
2.034907383998
 30
0.0
 11
-192.168307625077
 21
2.219792634146
 31
0.0
  0
HATCH
  5
E0
330
1F
100
AcDbEntity
  8
FREI LASSEN
  6
AUSGEZOGEN
 62
    18
420
        0
370
    18
100
AcDbHatch
 10
0.0
 20
0.0
 30
0.0
210
0.0
220
0.0
230
1.0
  2
MegaCAD_TYP12
 70
     0
 71
     0
 91
        1
 92
        2
 72
     0
 73
     1
 93
       10
 10
-197.6406238390803
 20
12.03324030833093
 10
-201.4973494971994
 20
7.43697364961713
 10
-194.6029495091287
 20
1.651885162438219
 10
-194.2815557042855
 20
2.034907383997677
 10
-192.1683076250771
 20
2.21979263414633
 10
-168.4209298883888
 20
-17.70662326613638
 10
-168.2360446382402
 20
-19.81987134534461
 10
-168.5574384430834
 20
-20.20289356690409
 10
-161.6630384550128
 20
-25.98798205408301
 10
-157.8063127968935
 20
-21.39171539536912
 97
        0
 75
     0
 76
     1
 52
0.0
 41
0.6
 77
     0
 78
     2
 53
45.0
 43
0.0
 44
0.0
 45
-1.272792206135785
 46
1.272792206135785
 79
     0
 53
135.0
 43
0.0
 44
0.0
 45
-1.272792206135785
 46
-1.272792206135785
 79
     0
 98
        0
  0
LINE
  5
E1
330
1F
100
AcDbEntity
  8
FREI LASSEN
  6
AUSGEZOGEN
 62
    18
420
        0
370
    18
100
AcDbLine
 10
-151.66453138137
 20
-105.480289532706
 30
0.0
 11
-151.66453138137
 21
-43.44956350353
 31
0.0
  0
LINE
  5
E2
330
1F
100
AcDbEntity
  8
FREI LASSEN
  6
AUSGEZOGEN
 62
    18
420
        0
370
    18
100
AcDbLine
 10
-148.66453138137
 20
-106.28413711
 30
0.0
 11
-148.66453138137
 21
-43.44956350353
 31
0.0
  0
LINE
  5
E3
330
1F
100
AcDbEntity
  8
FREI LASSEN
  6
AUSGEZOGEN
 62
    18
420
        0
370
    18
100
AcDbLine
 10
-152.066455170017
 20
-106.980289532706
 30
0.0
 11
-154.252721832395
 21
-110.76701447084
 31
0.0
  0
LINE
  5
E4
330
1F
100
AcDbEntity
  8
FREI LASSEN
  6
AUSGEZOGEN
 62
    18
420
        0
370
    18
100
AcDbLine
 10
-149.066455170017
 20
-107.78413711
 30
0.0
 11
-151.31923191975
 21
-111.686060898646
 31
0.0
  0
LINE
  5
E5
330
1F
100
AcDbEntity
  8
FREI LASSEN
  6
AUSGEZOGEN
 62
    18
420
        0
370
    18
100
AcDbLine
 10
-151.252721832395
 20
-111.570862048133
 30
0.0
 11
-154.252721832395
 21
-110.76701447084
 31
0.0
  0
ARC
  5
E6
330
1F
100
AcDbEntity
  8
FREI LASSEN
  6
AUSGEZOGEN
 62
    18
420
        0
370
    18
100
AcDbCircle
 10
-154.66453138137
 20
-105.480289532706
 30
0.0
 40
3.0
100
AcDbArc
 50
330.0
 51
0.0
  0
ARC
  5
E7
330
1F
100
AcDbEntity
  8
FREI LASSEN
  6
AUSGEZOGEN
 62
    18
420
        0
370
    18
100
AcDbCircle
 10
-151.66453138137
 20
-106.28413711
 30
0.0
 40
3.0
100
AcDbArc
 50
330.0
 51
0.0
  0
LINE
  5
E8
330
1F
100
AcDbEntity
  8
FREI LASSEN
  6
AUSGEZOGEN
 62
    18
420
        0
370
    18
100
AcDbLine
 10
-214.659935699322
 20
-141.093132020935
 30
0.0
 11
-85.659935699322
 21
-141.093132020935
 31
0.0
  0
LINE
  5
E9
330
1F
100
AcDbEntity
  8
FREI LASSEN
  6
AUSGEZOGEN
 62
    18
420
        0
370
    18
100
AcDbLine
 10
-85.659935699322
 20
-143.093132020935
 30
0.0
 11
-85.659935699322
 21
24.906867979065
 31
0.0
  0
LINE
  5
EA
330
1F
100
AcDbEntity
  8
FREI LASSEN
  6
AUSGEZOGEN
 62
    18
420
        0
370
    18
100
AcDbLine
 10
-214.659935699322
 20
-143.093132020935
 30
0.0
 11
-85.659935699322
 21
-143.093132020935
 31
0.0
  0
LINE
  5
EB
330
1F
100
AcDbEntity
  8
FREI LASSEN
  6
AUSGEZOGEN
 62
    18
420
        0
370
    18
100
AcDbLine
 10
-87.922338175363
 20
-45.097198188587
 30
0.0
 11
-85.659935699322
 21
-45.097198188587
 31
0.0
  0
LINE
  5
EC
330
1F
100
AcDbEntity
  8
FREI LASSEN
  6
AUSGEZOGEN
 62
    18
420
        0
370
    18
100
AcDbLine
 10
-87.659935699322
 20
-44.600963942679
 30
0.0
 11
-87.659935699322
 21
24.906867979065
 31
0.0
  0
ARC
  5
ED
330
1F
100
AcDbEntity
  8
FREI LASSEN
  6
AUSGEZOGEN
 62
    18
420
        0
370
    18
100
AcDbCircle
 10
-150.159935699322
 20
-120.097198188587
 30
0.0
 40
20.0
100
AcDbArc
 50
201.951637994782
 51
335.764708816419
  0
ARC
  5
EE
330
1F
100
AcDbEntity
  8
FREI LASSEN
  6
AUSGEZOGEN
 62
    18
420
        0
370
    18
100
AcDbCircle
 10
-150.159935699322
 20
-120.097198188587
 30
0.0
 40
22.0
100
AcDbArc
 50
202.230345245906
 51
335.595537372069
  0
LINE
  5
EF
330
1F
100
AcDbEntity
  8
FREI LASSEN
  6
AUSGEZOGEN
 62
    18
420
        0
370
    18
100
AcDbLine
 10
-85.659935699322
 20
-45.097198188587
 30
0.0
 11
-131.368665391984
 21
-131.537834544863
 31
0.0
  0
LINE
  5
F0
330
1F
100
AcDbEntity
  8
FREI LASSEN
  6
AUSGEZOGEN
 62
    18
420
        0
370
    18
100
AcDbLine
 10
-212.751837186723
 20
-48.78646395118
 30
0.0
 11
-168.475579334907
 21
-132.284781961191
 31
0.0
  0
LINE
  5
F1
330
1F
100
AcDbEntity
  8
FREI LASSEN
  6
AUSGEZOGEN
 62
    18
420
        0
370
    18
100
AcDbLine
 10
-87.659935699322
 20
-44.600963942679
 30
0.0
 11
-133.136697403246
 21
-130.60292128303
 31
0.0
  0
LINE
  5
F2
330
1F
100
AcDbEntity
  8
FREI LASSEN
  6
AUSGEZOGEN
 62
    18
420
        0
370
    18
100
AcDbLine
 10
-211.582532589691
 20
-46.722438601948
 30
0.0
 11
-166.708627513018
 21
-131.347828782466
 31
0.0
  0
LINE
  5
F3
330
1F
100
AcDbEntity
  8
FREI LASSEN
  6
AUSGEZOGEN
 62
    18
420
        0
370
    18
100
AcDbLine
 10
-92.659935699322
 20
-143.093132020935
 30
0.0
 11
-92.659935699322
 21
-141.093132020935
 31
0.0
  0
LINE
  5
F4
330
1F
100
AcDbEntity
  8
FREI LASSEN
  6
AUSGEZOGEN
 62
    18
420
        0
370
    18
100
AcDbLine
 10
-98.659935699322
 20
-143.093132020935
 30
0.0
 11
-98.659935699322
 21
-141.093132020935
 31
0.0
  0
LINE
  5
F5
330
1F
100
AcDbEntity
  8
FREI LASSEN
  6
AUSGEZOGEN
 62
    18
420
        0
370
    18
100
AcDbLine
 10
-207.659935699322
 20
-143.093132020935
 30
0.0
 11
-207.659935699322
 21
-141.093132020935
 31
0.0
  0
LINE
  5
F6
330
1F
100
AcDbEntity
  8
FREI LASSEN
  6
AUSGEZOGEN
 62
    18
420
        0
370
    18
100
AcDbLine
 10
-201.659935699322
 20
-143.093132020935
 30
0.0
 11
-201.659935699322
 21
-141.093132020935
 31
0.0
  0
LINE
  5
F7
330
1F
100
AcDbEntity
  8
FREI LASSEN
  6
AUSGEZOGEN
 62
    18
420
        0
370
    18
100
AcDbLine
 10
-87.659935699322
 20
24.902801811413
 30
0.0
 11
-85.659935699322
 21
24.902801811413
 31
0.0
  0
HATCH
  5
F8
330
1F
100
AcDbEntity
  8
FREI LASSEN
  6
AUSGEZOGEN
 62
    18
420
        0
370
    18
100
AcDbHatch
 10
0.0
 20
0.0
 30
0.0
210
0.0
220
0.0
230
1.0
  2
SOLID
 70
     1
 71
     0
 91
        8
 92
        2
 72
     1
 73
     1
 93
        9
 10
-206.6968503937008
 20
129.7173221438268
 42
0.0
 10
-206.6968503937008
 20
131.7173221438267
 42
0.0
 10
-219.1968503937008
 20
131.7173221438267
 42
0.414213562373098
 10
-223.1968503937008
 20
127.7173221438268
 42
0.0
 10
-223.1968503937008
 20
118.0992881550769
 42
0.1844830881382517
 10
-222.1968503937008
 20
117.7173221438268
 42
0.0
 10
-221.1968503937007
 20
117.7173221438268
 42
0.0
 10
-221.1968503937007
 20
127.7173221438268
 42
-0.4142135623731241
 10
-219.1968503937008
 20
129.7173221438268
 42
0.0
 97
        0
 92
        2
 72
     1
 73
     1
 93
        9
 10
-225.1968503937008
 20
119.2173221438268
 42
0.4142135623730924
 10
-222.1968503937008
 20
116.2173221438268
 42
0.0
 10
-206.3468503937008
 20
116.2173221438268
 42
0.0
 10
-206.3468503937008
 20
116.7173221438268
 42
0.4142135623731064
 10
-207.3468503937008
 20
117.7173221438268
 42
0.0
 10
-222.1968503937008
 20
117.7173221438268
 42
-0.4142135623730971
 10
-223.6968503937008
 20
119.2173221438268
 42
0.0
 10
-223.6968503937007
 20
132.2173221438268
 42
0.0
 10
-225.1968503937008
 20
132.2173221438268
 42
0.0
 97
        0
 92
        2
 72
     0
 73
     1
 93
        4
 10
-198.6968503937007
 20
131.7173221438267
 10
-198.6968503937007
 20
129.7173221438268
 10
-185.6968503937008
 20
129.7173221438268
 10
-185.6968503937008
 20
131.7173221438267
 97
        0
 92
        2
 72
     0
 73
     1
 93
        4
 10
-164.6968503937008
 20
129.7173221438268
 10
-164.6968503937007
 20
131.7173221438267
 10
-177.6968503937007
 20
131.7173221438267
 10
-177.6968503937008
 20
129.7173221438268
 97
        0
 92
        2
 72
     0
 73
     1
 93
        4
 10
-150.1968503937008
 20
129.7173221438268
 10
-150.1968503937008
 20
131.7173221438267
 10
-156.6968503937008
 20
131.7173221438267
 10
-156.6968503937008
 20
129.7173221438268
 97
        0
 92
        2
 72
     0
 73
     1
 93
        4
 10
-143.6968503937008
 20
129.7173221438268
 10
-143.6968503937008
 20
131.7173221438267
 10
-150.1968503937008
 20
131.7173221438267
 10
-150.1968503937008
 20
129.7173221438268
 97
        0
 92
        2
 72
     0
 73
     1
 93
        4
 10
-122.6968503937007
 20
129.7173221438268
 10
-122.6968503937007
 20
131.7173221438267
 10
-135.6968503937008
 20
131.7173221438267
 10
-135.6968503937008
 20
129.7173221438268
 97
        0
 92
        2
 72
     0
 73
     1
 93
        4
 10
-101.6968503937008
 20
129.7173221438268
 10
-101.6968503937008
 20
131.7173221438267
 10
-114.6968503937009
 20
131.7173221438267
 10
-114.6968503937009
 20
129.7173221438268
 97
        0
 75
     0
 76
     1
 98
        0
  0
HATCH
  5
F9
330
1F
100
AcDbEntity
  8
FREI LASSEN
  6
AUSGEZOGEN
 62
    18
420
        0
370
    18
100
AcDbHatch
 10
0.0
 20
0.0
 30
0.0
210
0.0
220
0.0
230
1.0
  2
SOLID
 70
     1
 71
     0
 91
        1
 92
        2
 72
     1
 73
     1
 93
       10
 10
-207.3468503937008
 20
39.26227726001457
 42
-0.3540265704470631
 10
-206.5489000929943
 20
38.28923449284781
 42
-0.3575960332523651
 10
-207.3468503937008
 20
37.30351843707837
 42
0.0
 10
-207.3468503937008
 20
35.26724595515293
 42
-0.3613057582796959
 10
-206.523553515789
 20
34.28931479977592
 42
-0.3648918201500296
 10
-207.3468503937008
 20
33.29871035579626
 42
0.0
 10
-207.3468503937008
 20
32.21732214382683
 42
0.0
 10
-206.3468503937008
 20
32.21732214382683
 42
0.0
 10
-206.3468503937008
 20
116.2173221438268
 42
0.0
 10
-207.3468503937008
 20
116.2173221438268
 42
0.0
 97
        0
 75
     0
 76
     1
 98
        0
  0
HATCH
  5
FA
330
1F
100
AcDbEntity
  8
FREI LASSEN
  6
AUSGEZOGEN
 62
    18
420
        0
370
    18
100
AcDbHatch
 10
0.0
 20
0.0
 30
0.0
210
0.0
220
0.0
230
1.0
  2
SOLID
 70
     1
 71
     0
 91
        1
 92
        2
 72
     0
 73
     1
 93
        4
 10
-90.16453138137035
 20
27.90686797906514
 10
-90.16453138137035
 20
24.9068679790652
 10
-0.1645313813701819
 20
24.9068679790652
 10
-0.1645313813701819
 20
27.90686797906514
 97
        0
 75
     0
 76
     1
 98
        0
  0
HATCH
  5
FB
330
1F
100
AcDbEntity
  8
FREI LASSEN
  6
AUSGEZOGEN
 62
    18
420
        0
370
    18
100
AcDbHatch
 10
0.0
 20
0.0
 30
0.0
210
0.0
220
0.0
230
1.0
  2
SOLID
 70
     1
 71
     0
 91
        3
 92
        2
 72
     0
 73
     1
 93
        4
 10
-207.6599356993219
 20
-143.0931320209348
 10
-207.6599356993219
 20
-141.0931320209348
 10
-214.6599356993219
 20
-141.0931320209349
 10
-214.6599356993219
 20
-143.0931320209348
 97
        0
 92
        2
 72
     0
 73
     1
 93
        4
 10
-98.65993569932198
 20
-143.0931320209349
 10
-98.65993569932198
 20
-141.0931320209348
 10
-201.6599356993219
 20
-141.0931320209349
 10
-201.6599356993219
 20
-143.0931320209348
 97
        0
 92
        2
 72
     0
 73
     1
 93
        4
 10
-85.65993569932198
 20
-143.0931320209348
 10
-85.65993569932198
 20
-141.0931320209348
 10
-92.65993569932192
 20
-141.0931320209348
 10
-92.65993569932192
 20
-143.0931320209348
 97
        0
 75
     0
 76
     1
 98
        0
  0
HATCH
  5
FC
330
1F
100
AcDbEntity
  8
FREI LASSEN
  6
AUSGEZOGEN
 62
    18
420
        0
370
    18
100
AcDbHatch
 10
0.0
 20
0.0
 30
0.0
210
0.0
220
0.0
230
1.0
  2
SOLID
 70
     1
 71
     0
 91
        1
 92
        2
 72
     1
 73
     1
 93
       12
 10
-168.4755793349074
 20
-132.2847819611908
 42
0.548762103773053
 10
-131.3686653919837
 20
-131.5378345448632
 42
0.0
 10
-85.65993569932198
 20
-45.09719818858699
 42
0.0
 10
-87.92233817536317
 20
-45.09719818858707
 42
0.0
 10
-131.9225866561915
 20
-128.3068936688729
 42
-0.0317235824268862
 10
-133.1077458459023
 20
-130.548170449718
 42
-0.5462220856410248
 10
-166.7564287834122
 20
-131.2576828245581
 42
-0.0522661605660386
 10
-168.7099301144263
 20
-127.5736751128874
 42
0.0
 10
-211.5825325896912
 20
-46.72243860194806
 42
0.0
 10
-212.6645313813703
 20
-46.77914375580687
 42
0.0
 10
-212.6645313813703
 20
-48.78188844780274
 42
0.0
 10
-212.7518371867226
 20
-48.78646395117977
 42
0.0
 97
        0
 75
     0
 76
     1
 98
        0
  0
HATCH
  5
FD
330
1F
100
AcDbEntity
  8
FREI LASSEN
  6
AUSGEZOGEN
 62
    18
420
        0
370
    18
100
AcDbHatch
 10
0.0
 20
0.0
 30
0.0
210
0.0
220
0.0
230
1.0
  2
SOLID
 70
     1
 71
     0
 91
        1
 92
        2
 72
     0
 73
     1
 93
       26
 10
-165.3435982454892
 20
-22.99727747778991
 10
-167.1807762147799
 20
-25.1636941373778
 10
-167.0823559664252
 20
-25.29499211674676
 10
-152.6801929571644
 20
-37.44005520837604
 10
-152.1552849659384
 20
-38.0637206103786
 10
-151.8272174714222
 20
-38.62173702269669
 10
-151.6959904736156
 20
-39.21257792985708
 10
-151.6631837241641
 20
-40.42708423901999
 10
-151.6631837241641
 20
-105.6821799853957
 10
-151.6631837241641
 20
-106.0760739235026
 10
-151.761603972519
 20
-106.273020892556
 10
-152.0896714670351
 20
-107.1921067481388
 10
-154.2221101813903
 20
-110.7371521911009
 10
-151.2695027307446
 20
-111.5905890569991
 10
-148.9074167702282
 20
-107.4218782120345
 10
-148.7761897724216
 20
-107.0279842739276
 10
-148.7105762735184
 20
-106.6340903358207
 10
-148.6777695240668
 20
-106.2401963977138
 10
-148.6777695240668
 20
-38.12936960006309
 10
-148.7761897724216
 20
-37.5385286929027
 10
-148.9730302691314
 20
-37.01333677542689
 10
-149.2682910141959
 20
-36.52096935279323
 10
-149.5635517592604
 20
-36.12707541468635
 10
-164.7202700059084
 20
-23.42399591073894
 10
-165.3114465828873
 20
-22.95378240035905
 10
-165.3532673273959
 20
-23.00259966026019
 97
        0
 75
     0
 76
     1
 98
        0
  0
HATCH
  5
FE
330
1F
100
AcDbEntity
  8
FREI LASSEN
  6
AUSGEZOGEN
 62
    18
420
        0
370
    18
100
AcDbHatch
 10
0.0
 20
0.0
 30
0.0
210
0.0
220
0.0
230
1.0
  2
SOLID
 70
     1
 71
     0
 91
        2
 92
        2
 72
     0
 73
     1
 93
        4
 10
-289.9758324431307
 20
10.75354192093573
 10
-289.8711605306448
 20
8.756282851426619
 10
-214.6645313813703
 20
12.69769527250332
 10
-214.6645313813703
 20
14.70043996449914
 97
        0
 92
        2
 72
     0
 73
     1
 93
        4
 10
-214.6645313813703
 20
-48.88670400636877
 10
-214.6645313813703
 20
-46.88395931437299
 10
-286.7571711341897
 20
-50.66217446647056
 10
-286.6524992217037
 20
-52.6594335359797
 97
        0
 75
     0
 76
     1
 98
        0
  0
HATCH
  5
FF
330
1F
100
AcDbEntity
  8
FREI LASSEN
  6
AUSGEZOGEN
 62
    18
420
        0
370
    18
100
AcDbHatch
 10
0.0
 20
0.0
 30
0.0
210
0.0
220
0.0
230
1.0
  2
SOLID
 70
     1
 71
     0
 91
        1
 92
        2
 72
     0
 73
     1
 93
        5
 10
-213.5803365282301
 20
-48.80583216706418
 10
-212.6811254683598
 20
-48.76613963254246
 10
-212.6366938630486
 20
-46.78045443887089
 10
-214.695358242469
 20
-46.86936571619947
 10
-214.6805477073653
 20
-48.84023236364965
 97
        0
 75
     0
 76
     1
 98
        0
  0
HATCH
  5
100
330
1F
100
AcDbEntity
  8
FREI LASSEN
  6
AUSGEZOGEN
 62
    18
420
        0
370
    18
100
AcDbHatch
 10
0.0
 20
0.0
 30
0.0
210
0.0
220
0.0
230
1.0
  2
SOLID
 70
     1
 71
     0
 91
        5
 92
        2
 72
     0
 73
     1
 93
        4
 10
-212.6645313813703
 20
16.80735184991434
 10
-212.6645313813703
 20
14.84924091591594
 10
-198.7845175847582
 20
3.202526458443231
 10
-197.8203361702284
 20
4.351593123121688
 97
        0
 92
        2
 72
     0
 73
     1
 93
        4
 10
-199.748698999288
 20
2.053459793764773
 10
-198.7845175847582
 20
3.202526458443231
 10
-212.6645313813703
 20
14.84924091591594
 10
-212.6645313813703
 20
12.89112998191752
 97
        0
 92
        2
 72
     0
 73
     1
 93
        4
 10
-212.6645313813703
 20
24.9068679790652
 10
-214.6645313813703
 20
24.9068679790652
 10
-214.6645313813703
 20
12.69769527250332
 10
-212.6645313813703
 20
12.80251083106938
 97
        0
 92
        2
 72
     0
 73
     1
 93
        3
 10
-214.6645313813703
 20
24.9068679790652
 10
-218.6645313813702
 20
24.9068679790652
 10
-214.6645313813703
 20
20.90686797906523
 97
        0
 92
        2
 72
     1
 73
     1
 93
        6
 10
-300.1645313813703
 20
27.90686797906514
 42
0.0
 10
-300.1645313813703
 20
24.9068679790652
 42
0.0
 10
-211.1809013136245
 20
24.9068679790652
 42
-0.1037877149027092
 10
-210.9801864627122
 20
24.95031478639521
 42
0.0
 10
-210.1645313813703
 20
24.95548340628721
 42
0.0
 10
-210.1645313813702
 20
27.90686797906517
 42
0.0
 97
        0
 75
     0
 76
     1
 98
        0
  0
HATCH
  5
101
330
1F
100
AcDbEntity
  8
FREI LASSEN
  6
AUSGEZOGEN
 62
    18
420
        0
370
    18
100
AcDbHatch
 10
0.0
 20
0.0
 30
0.0
210
0.0
220
0.0
230
1.0
  2
SOLID
 70
     1
 71
     0
 91
        2
 92
        2
 72
     0
 73
     1
 93
        6
 10
-87.65993569932192
 20
-44.60096394267899
 10
-87.922338175363
 20
-45.09719818858699
 10
-85.65993569932198
 20
-45.09719818858699
 10
-85.65993569932198
 20
20.91146366111349
 10
-85.65993569932198
 20
24.90280181141298
 10
-87.65993569932192
 20
24.90280181141298
 97
        0
 92
        2
 72
     0
 73
     1
 93
       12
 10
-81.66453138137024
 20
24.9068679790652
 10
-90.16453138137035
 20
24.9068679790652
 10
-90.16453138137035
 20
27.90686797906517
 10
-90.16453138137035
 20
24.9068679790652
 10
-81.66453138137024
 20
24.9068679790652
 10
-85.65993569932198
 20
20.91146366111349
 10
-85.65993569932198
 20
-45.09719818858699
 10
-87.922338175363
 20
-45.09719818858699
 10
-87.65993569932192
 20
-44.60096394267899
 10
-87.65993569932192
 20
24.90280181141298
 10
-85.65993569932198
 20
24.90280181141298
 10
-85.65993569932198
 20
20.91146366111349
 97
        0
 75
     0
 76
     1
 98
        0
  0
HATCH
  5
102
330
1F
100
AcDbEntity
  8
FREI LASSEN
  6
AUSGEZOGEN
 62
    18
420
        0
370
    18
100
AcDbHatch
 10
0.0
 20
0.0
 30
0.0
210
0.0
220
0.0
230
1.0
  2
SOLID
 70
     1
 71
     0
 91
        1
 92
        2
 72
     0
 73
     1
 93
        6
 10
-87.65993569932192
 20
-44.60096394267899
 10
-87.922338175363
 20
-45.09719818858699
 10
-85.65993569932198
 20
-45.09719818858699
 10
-85.65993569932198
 20
20.91146366111349
 10
-85.65993569932198
 20
24.90280181141298
 10
-87.65993569932192
 20
24.90280181141298
 97
        0
 75
     0
 76
     1
 98
        0
  0
HATCH
  5
103
330
1F
100
AcDbEntity
  8
FREI LASSEN
  6
AUSGEZOGEN
 62
    18
420
        0
370
    18
100
AcDbHatch
 10
0.0
 20
0.0
 30
0.0
210
0.0
220
0.0
230
1.0
  2
SOLID
 70
     1
 71
     0
 91
        1
 92
        2
 72
     0
 73
     1
 93
        3
 10
-85.65993569932198
 20
20.91146366111349
 10
-81.66453138137024
 20
24.9068679790652
 10
-85.65993569932198
 20
24.9068679790652
 97
        0
 75
     0
 76
     1
 98
        0
  0
LINE
  5
104
330
1F
100
AcDbEntity
  8
FREI LASSEN
  6
AUSGEZOGEN
 62
    18
420
        0
370
    18
100
AcDbLine
 10
-90.229169406031
 20
24.906867979065
 30
0.0
 11
-90.229169406031
 21
27.906867979065
 31
0.0
  0
LINE
  5
105
330
1F
100
AcDbEntity
  8
FREI LASSEN
  6
AUSGEZOGEN
 62
    18
420
        0
370
    18
100
AcDbLine
 10
-81.729169406031
 20
24.906867979065
 30
0.0
 11
-85.729169406031
 21
20.906867979065
 31
0.0
  0
INSERT
  5
219
330
1F
100
AcDbEntity
  8
0
100
AcDbBlockReference
  2
DICHTR114_nNn01
 10
0.0
 20
0.0
 30
0.0
  0
INSERT
  5
221
330
1F
100
AcDbEntity
  8
0
100
AcDbBlockReference
  2
*X4
 10
0.0
 20
0.0
 30
0.0
  0
HATCH
  5
222
330
1F
100
AcDbEntity
  8
FREI LASSEN
  6
AUSGEZOGEN
 62
    18
420
        0
370
    18
100
AcDbHatch
 10
0.0
 20
0.0
 30
0.0
210
0.0
220
0.0
230
1.0
  2
SOLID
 70
     1
 71
     0
 91
        1
 92
        2
 72
     1
 73
     1
 93
       10
 10
-207.3468503937008
 20
32.98694974226352
 42
0.0
 10
-207.3468503937008
 20
30.96204863718144
 42
-0.370588379076146
 10
-206.4912345034584
 20
29.97886063501426
 42
-0.3741960973092341
 10
-207.3468503937008
 20
28.98299934424445
 42
0.0
 10
-207.3468503937008
 20
27.90686797906517
 42
0.0
 10
-206.3468503937008
 20
27.90686797906517
 42
0.0
 10
-206.3468503937008
 20
116.2173221438268
 42
0.0
 10
-207.3468503937008
 20
116.2173221438268
 42
0.0
 10
-207.3468503937008
 20
34.95793762530597
 42
-0.3633079417677559
 10
-206.5165810806637
 20
33.97878032808607
 42
-0.3668986283885313
 97
        0
 75
     0
 76
     1
 98
        0
  0
HATCH
  5
223
330
1F
100
AcDbEntity
  8
FREI LASSEN
  6
AUSGEZOGEN
 62
    18
420
        0
370
    18
100
AcDbHatch
 10
0.0
 20
0.0
 30
0.0
210
0.0
220
0.0
230
1.0
  2
SOLID
 70
     1
 71
     0
 91
        1
 92
        2
 72
     1
 73
     1
 93
        6
 10
-206.9265160049929
 20
25.71719780560291
 42
0.0
 10
-207.1381490140173
 20
24.9068679790652
 42
0.0
 10
-206.3468503937008
 20
24.9068679790652
 42
0.0
 10
-206.3468503937008
 20
27.90686797906517
 42
0.0
 10
-207.3468503937008
 20
27.90686797906517
 42
0.0
 10
-207.3468503937008
 20
26.80688491020713
 42
-0.3223214335254121
 97
        0
 75
     0
 76
     1
 98
        0
  0
HATCH
  5
224
330
1F
100
AcDbEntity
  8
FREI LASSEN
  6
AUSGEZOGEN
 62
    18
420
        0
370
    18
100
AcDbHatch
 10
0.0
 20
0.0
 30
0.0
210
0.0
220
0.0
230
1.0
  2
SOLID
 70
     1
 71
     0
 91
        1
 92
        2
 72
     0
 73
     1
 93
        5
 10
-207.3468503937008
 20
24.10776318167704
 10
-207.3468503937008
 20
16.21732214382686
 10
-206.3468503937008
 20
16.21732214382686
 10
-206.3468503937008
 20
24.9068679790652
 10
-207.1381490140173
 20
24.9068679790652
 97
        0
 75
     0
 76
     1
 98
        0
  0
HATCH
  5
225
330
1F
100
AcDbEntity
  8
FREI LASSEN
  6
AUSGEZOGEN
 62
    18
420
        0
370
    18
100
AcDbHatch
 10
0.0
 20
0.0
 30
0.0
210
0.0
220
0.0
230
1.0
  2
SOLID
 70
     1
 71
     0
 91
        3
 92
        2
 72
     1
 73
     1
 93
       10
 10
-93.04685039370077
 20
28.98299934424445
 42
-0.3741960973092505
 10
-93.90246628394321
 20
29.97886063501427
 42
-0.3705883790761954
 10
-93.04685039370077
 20
30.96204863718145
 42
0.0
 10
-93.04685039370077
 20
32.98694974226353
 42
-0.366898628388555
 10
-93.87711970673784
 20
33.97878032808608
 42
-0.3633079417677802
 10
-93.04685039370077
 20
34.95793762530599
 42
0.0
 10
-93.04685039370077
 20
116.2173221438268
 42
0.0
 10
-94.04685039370082
 20
116.2173221438268
 42
0.0
 10
-94.04685039370082
 20
27.90686797906517
 42
0.0
 10
-93.04685039370077
 20
27.90686797906517
 42
0.0
 97
        0
 92
        2
 72
     1
 73
     1
 93
        6
 10
-94.04685039370082
 20
24.9068679790652
 42
0.0
 10
-93.25555177338433
 20
24.9068679790652
 42
0.0
 10
-93.46718478240876
 20
25.7171978056029
 42
-0.3223214335254402
 10
-93.04685039370077
 20
26.80688491020717
 42
0.0
 10
-93.04685039370077
 20
27.90686797906517
 42
0.0
 10
-94.04685039370082
 20
27.90686797906517
 42
0.0
 97
        0
 92
        2
 72
     0
 73
     1
 93
        5
 10
-93.04685039370077
 20
24.10776318167683
 10
-93.25555177338433
 20
24.9068679790652
 10
-94.04685039370082
 20
24.9068679790652
 10
-94.04685039370082
 20
16.21732214382686
 10
-93.04685039370077
 20
16.21732214382686
 97
        0
 75
     0
 76
     1
 98
        0
  0
HATCH
  5
226
330
1F
100
AcDbEntity
  8
FREI LASSEN
  6
AUSGEZOGEN
 62
    18
420
        0
370
    18
100
AcDbHatch
 10
0.0
 20
0.0
 30
0.0
210
0.0
220
0.0
230
1.0
  2
SOLID
 70
     1
 71
     0
 91
        2
 92
        2
 72
     1
 73
     1
 93
        9
 10
-93.6968503937008
 20
131.7173221438267
 42
0.0
 10
-93.6968503937008
 20
129.7173221438268
 42
0.0
 10
-81.19685039370086
 20
129.7173221438268
 42
-0.4142135623731052
 10
-79.19685039370086
 20
127.7173221438268
 42
0.0
 10
-79.19685039370074
 20
117.7173221438268
 42
0.0
 10
-78.19685039370086
 20
117.7173221438268
 42
0.1844830881382601
 10
-77.1968503937008
 20
118.099288155077
 42
0.0
 10
-77.19685039370074
 20
127.7173221438268
 42
0.4142135623730863
 10
-81.19685039370086
 20
131.7173221438268
 42
0.0
 97
        0
 92
        2
 72
     1
 73
     1
 93
        9
 10
-76.69685039370086
 20
119.2173221438268
 42
-0.4142135623730877
 10
-78.19685039370086
 20
117.7173221438268
 42
0.0
 10
-93.04685039370077
 20
117.7173221438268
 42
0.4142135623731064
 10
-94.04685039370077
 20
116.7173221438268
 42
0.0
 10
-94.04685039370082
 20
116.2173221438268
 42
0.0
 10
-78.19685039370086
 20
116.2173221438268
 42
0.4142135623730971
 10
-75.19685039370086
 20
119.2173221438268
 42
0.0
 10
-75.1968503937008
 20
132.2173221438268
 42
0.0
 10
-76.6968503937008
 20
132.2173221438268
 42
0.0
 97
        0
 75
     0
 76
     1
 98
        0
  0
LINE
  5
227
330
1F
100
AcDbEntity
  8
FREI LASSEN
  6
AUSGEZOGEN
 62
    18
420
        0
370
    18
100
AcDbLine
 10
-85.621850393701
 20
116.217322143827
 30
0.0
 11
-76.121850393701
 21
116.217322143827
 31
0.0
  0
INSERT
  5
236
330
1F
100
AcDbEntity
  8
0
100
AcDbBlockReference
  2
Montagefuss Typ 200 G (25mm)_001_001_nNn04
 10
0.0
 20
0.0
 30
0.0
  0
LINE
  5
237
330
1F
100
AcDbEntity
  8
FREI LASSEN
  6
AUSGEZOGEN
 62
    18
420
        0
370
    18
100
AcDbLine
 10
-41.784641091375
 20
91.217322143827
 30
0.0
 11
-41.784641091375
 21
92.380112841501
 31
0.0
  0
LINE
  5
238
330
1F
100
AcDbEntity
  8
FREI LASSEN
  6
AUSGEZOGEN
 62
    18
420
        0
370
    18
100
AcDbLine
 10
-46.784641091375
 20
91.217322143827
 30
0.0
 11
-46.784641091375
 21
92.380112841501
 31
0.0
  0
LINE
  5
239
330
1F
100
AcDbEntity
  8
FREI LASSEN
  6
AUSGEZOGEN
 62
    18
420
        0
370
    18
100
AcDbLine
 10
-55.784641091375
 20
91.217322143827
 30
0.0
 11
-55.784641091375
 21
92.380112841501
 31
0.0
  0
HATCH
  5
23A
330
1F
100
AcDbEntity
  8
FREI LASSEN
  6
AUSGEZOGEN
 62
    18
420
        0
370
    18
100
AcDbHatch
 10
0.0
 20
0.0
 30
0.0
210
0.0
220
0.0
230
1.0
  2
SOLID
 70
     1
 71
     0
 91
        2
 92
        2
 72
     1
 73
     1
 93
       12
 10
-85.62185039370081
 20
116.2173221438268
 42
0.0
 10
-67.36603644021244
 20
116.2173221438268
 42
-0.41421356237311
 10
-65.62185039370087
 20
114.4731360973152
 42
0.0
 10
-65.62185039370075
 20
92.96150819033838
 42
0.4142135623730639
 10
-65.04045504486356
 20
92.38011284150116
 42
0.0
 10
-55.78464109137519
 20
92.38011284150119
 42
0.0
 10
-55.78464109137519
 20
91.2173221438268
 42
0.0
 10
-65.04045504486356
 20
91.2173221438268
 42
-0.4142135623731006
 10
-66.78464109137514
 20
92.96150819033838
 42
0.0
 10
-66.78464109137525
 20
114.4731360973152
 42
0.4142135623730985
 10
-67.36603644021244
 20
115.0545314461524
 42
0.0
 10
-85.62185039370081
 20
115.0545314461524
 42
0.0
 97
        0
 92
        2
 72
     0
 73
     1
 93
        4
 10
-41.78464109137519
 20
92.38011284150119
 10
-41.78464109137519
 20
91.2173221438268
 10
-46.78464109137519
 20
91.2173221438268
 10
-46.78464109137519
 20
92.38011284150119
 97
        0
 75
     0
 76
     1
 98
        0
  0
LINE
  5
23B
330
1F
100
AcDbEntity
  8
FREI LASSEN
  6
AUSGEZOGEN
 62
    18
420
        0
370
    18
100
AcDbLine
 10
-214.771850393701
 20
116.217322143827
 30
0.0
 11
-224.271850393701
 21
116.217322143827
 31
0.0
  0
INSERT
  5
24A
330
1F
100
AcDbEntity
  8
0
100
AcDbBlockReference
  2
Montagefuss Typ 200 G (25mm)_001_001_nNn05
 10
0.0
 20
0.0
 30
0.0
  0
LINE
  5
24B
330
1F
100
AcDbEntity
  8
FREI LASSEN
  6
AUSGEZOGEN
 62
    18
420
        0
370
    18
100
AcDbLine
 10
-258.609059696026
 20
91.217322143827
 30
0.0
 11
-258.609059696026
 21
92.380112841501
 31
0.0
  0
LINE
  5
24C
330
1F
100
AcDbEntity
  8
FREI LASSEN
  6
AUSGEZOGEN
 62
    18
420
        0
370
    18
100
AcDbLine
 10
-253.609059696026
 20
91.217322143827
 30
0.0
 11
-253.609059696026
 21
92.380112841501
 31
0.0
  0
LINE
  5
24D
330
1F
100
AcDbEntity
  8
FREI LASSEN
  6
AUSGEZOGEN
 62
    18
420
        0
370
    18
100
AcDbLine
 10
-244.609059696026
 20
91.217322143827
 30
0.0
 11
-244.609059696026
 21
92.380112841501
 31
0.0
  0
HATCH
  5
24E
330
1F
100
AcDbEntity
  8
FREI LASSEN
  6
AUSGEZOGEN
 62
    18
420
        0
370
    18
100
AcDbHatch
 10
0.0
 20
0.0
 30
0.0
210
0.0
220
0.0
230
1.0
  2
SOLID
 70
     1
 71
     0
 91
        2
 92
        2
 72
     1
 73
     1
 93
       12
 10
-214.7718503937008
 20
116.2173221438268
 42
0.0
 10
-233.0276643471892
 20
116.2173221438268
 42
0.41421356237311
 10
-234.7718503937007
 20
114.4731360973152
 42
0.0
 10
-234.7718503937008
 20
92.96150819033836
 42
-0.4142135623730639
 10
-235.353245742538
 20
92.38011284150114
 42
0.0
 10
-244.6090596960264
 20
92.38011284150116
 42
0.0
 10
-244.6090596960264
 20
91.21732214382678
 42
0.0
 10
-235.353245742538
 20
91.21732214382679
 42
0.4142135623731006
 10
-233.6090596960265
 20
92.96150819033836
 42
0.0
 10
-233.6090596960263
 20
114.4731360973152
 42
-0.4142135623730985
 10
-233.0276643471892
 20
115.0545314461524
 42
0.0
 10
-214.7718503937008
 20
115.0545314461524
 42
0.0
 97
        0
 92
        2
 72
     0
 73
     1
 93
        4
 10
-258.6090596960264
 20
92.38011284150116
 10
-258.6090596960264
 20
91.21732214382678
 10
-253.6090596960264
 20
91.21732214382678
 10
-253.6090596960264
 20
92.38011284150116
 97
        0
 75
     0
 76
     1
 98
        0
  0
ENDSEC
  0
SECTION
  2
OBJECTS
  0
DICTIONARY
  5
C
330
0
100
AcDbDictionary
281
     1
  3
ACAD_DETAILVIEWSTYLE
350
287
  3
ACAD_GROUP
350
D
  3
ACAD_LAYOUT
350
1A
  3
ACAD_MATERIAL
350
43
  3
ACAD_MLEADERSTYLE
350
6B
  3
ACAD_MLINESTYLE
350
17
  3
ACAD_PLOTSETTINGS
350
19
  3
ACAD_PLOTSTYLENAME
350
E
  3
ACAD_SCALELIST
350
47
  3
ACAD_SECTIONVIEWSTYLE
350
288
  3
ACAD_TABLESTYLE
350
69
  3
ACAD_VISUALSTYLE
350
2A
  3
ACAD_WIPEOUT_VARS
350
284
  3
ACDB_RECOMPOSE_DATA
350
283
  3
AcDbVariableDictionary
350
24F
  0
SUN
  5
6D
330
29
100
AcDbSun
 90
        1
290
     0
 63
     7
421
 16777215
 40
1.0
291
     1
 91
  2455826
 92
 54000000
292
     0
 70
     2
 71
   256
280
     1
  0
DICTIONARY
  5
287
102
{ACAD_REACTORS
330
C
102
}
330
C
100
AcDbDictionary
281
     1
  0
DICTIONARY
  5
D
102
{ACAD_REACTORS
330
C
102
}
330
C
100
AcDbDictionary
281
     1
  0
DICTIONARY
  5
1A
102
{ACAD_REACTORS
330
C
102
}
330
C
100
AcDbDictionary
281
     1
  3
Layout1
350
1E
  3
Layout2
350
26
  3
Model
350
22
  0
DICTIONARY
  5
43
102
{ACAD_REACTORS
330
C
102
}
330
C
100
AcDbDictionary
281
     1
  3
ByBlock
350
45
  3
ByLayer
350
44
  3
Global
350
46
  0
DICTIONARY
  5
6B
102
{ACAD_REACTORS
330
C
102
}
330
C
100
AcDbDictionary
281
     1
  3
Standard
350
6C
  0
DICTIONARY
  5
17
102
{ACAD_REACTORS
330
C
102
}
330
C
100
AcDbDictionary
281
     1
  3
Standard
350
18
  0
DICTIONARY
  5
19
102
{ACAD_REACTORS
330
C
102
}
330
C
100
AcDbDictionary
281
     1
  0
ACDBDICTIONARYWDFLT
  5
E
102
{ACAD_REACTORS
330
C
102
}
330
C
100
AcDbDictionary
281
     1
  3
Normal
350
F
100
AcDbDictionaryWithDefault
340
F
  0
DICTIONARY
  5
47
102
{ACAD_REACTORS
330
C
102
}
330
C
100
AcDbDictionary
281
     1
  3
A0
350
48
  3
A1
350
49
  3
A2
350
4A
  3
A3
350
4B
  3
A4
350
4C
  3
A5
350
4D
  3
A6
350
4E
  3
A7
350
4F
  3
A8
350
50
  3
A9
350
51
  3
B0
350
52
  3
B1
350
53
  3
B2
350
54
  3
B3
350
55
  3
B4
350
56
  3
B5
350
57
  3
B6
350
58
  3
B7
350
59
  3
B8
350
5A
  3
B9
350
5B
  3
C0
350
5C
  3
C1
350
5D
  3
C2
350
5E
  3
C3
350
5F
  3
C4
350
60
  3
C5
350
61
  3
C6
350
62
  3
C7
350
63
  3
C8
350
64
  3
C9
350
65
  3
D0
350
66
  3
D1
350
67
  3
D2
350
68
  0
DICTIONARY
  5
288
102
{ACAD_REACTORS
330
C
102
}
330
C
100
AcDbDictionary
281
     1
  0
DICTIONARY
  5
69
102
{ACAD_REACTORS
330
C
102
}
330
C
100
AcDbDictionary
281
     1
  3
Standard
350
6A
  0
DICTIONARY
  5
2A
102
{ACAD_REACTORS
330
C
102
}
330
C
100
AcDbDictionary
281
     1
  3
2dWireframe
350
2F
  3
Basic
350
32
  3
Brighten
350
36
  3
ColorChange
350
3A
  3
Conceptual
350
34
  3
Dim
350
35
  3
EdgeColorOff
350
3D
  3
Facepattern
350
39
  3
Flat
350
2B
  3
FlatWithEdges
350
2C
  3
Gouraud
350
2D
  3
GouraudWithEdges
350
2E
  3
Hidden
350
31
  3
JitterOff
350
3B
  3
Linepattern
350
38
  3
OverhangOff
350
3C
  3
Realistic
350
33
  3
Shaded
350
42
  3
Shaded with edges
350
41
  3
Shades of Gray
350
3E
  3
Sketchy
350
3F
  3
Thicken
350
37
  3
Wireframe
350
30
  3
X-Ray
350
40
  0
WIPEOUTVARIABLES
  5
284
102
{ACAD_REACTORS
330
C
102
}
330
C
100
AcDbWipeoutVariables
 70
     0
  0
XRECORD
  5
283
102
{ACAD_REACTORS
330
C
102
}
330
C
100
AcDbXrecord
280
     1
 90
        1
330
6A
  0
DICTIONARY
  5
24F
102
{ACAD_REACTORS
330
C
102
}
330
C
100
AcDbDictionary
281
     1
  3
CANNOSCALE
350
250
  3
CENTEREXE
350
28A
  3
CENTERLTYPEFILE
350
28B
  3
CMLEADERSTYLE
350
286
  3
CTABLESTYLE
350
285
  3
WIPEOUTFRAME
350
289
  0
LAYOUT
  5
1E
102
{ACAD_REACTORS
330
1A
102
}
330
1A
100
AcDbPlotSettings
  1

  2
none_device
  4

  6

 40
0.0
 41
0.0
 42
0.0
 43
0.0
 44
0.0
 45
0.0
 46
0.0
 47
0.0
 48
0.0
 49
0.0
140
0.0
141
0.0
142
1.0
143
1.0
 70
   688
 72
     1
 73
     0
 74
     5
  7

 75
    16
 76
     0
 77
     2
 78
   300
147
1.0
148
0.0
149
0.0
100
AcDbLayout
  1
Layout1
 70
     1
 71
     1
 10
0.0
 20
0.0
 11
420.0
 21
297.0
 12
0.0
 22
0.0
 32
0.0
 14
1.000000000000E+20
 24
1.000000000000E+20
 34
1.000000000000E+20
 15
-1.000000000000E+20
 25
-1.000000000000E+20
 35
-1.000000000000E+20
146
0.0
 13
0.0
 23
0.0
 33
0.0
 16
1.0
 26
0.0
 36
0.0
 17
0.0
 27
1.0
 37
0.0
 76
     0
330
1B
  0
LAYOUT
  5
26
102
{ACAD_REACTORS
330
1A
102
}
330
1A
100
AcDbPlotSettings
  1

  2
none_device
  4

  6

 40
0.0
 41
0.0
 42
0.0
 43
0.0
 44
0.0
 45
0.0
 46
0.0
 47
0.0
 48
0.0
 49
0.0
140
0.0
141
0.0
142
1.0
143
1.0
 70
   688
 72
     1
 73
     0
 74
     5
  7

 75
    16
 76
     0
 77
     2
 78
   300
147
1.0
148
0.0
149
0.0
100
AcDbLayout
  1
Layout2
 70
     1
 71
     2
 10
0.0
 20
0.0
 11
0.0
 21
0.0
 12
0.0
 22
0.0
 32
0.0
 14
0.0
 24
0.0
 34
0.0
 15
0.0
 25
0.0
 35
0.0
146
0.0
 13
0.0
 23
0.0
 33
0.0
 16
1.0
 26
0.0
 36
0.0
 17
0.0
 27
1.0
 37
0.0
 76
     0
330
23
  0
LAYOUT
  5
22
102
{ACAD_REACTORS
330
1A
102
}
330
1A
100
AcDbPlotSettings
  1

  2
none_device
  4
Letter_(8.50_x_11.00_Inches)
  6

 40
6.35
 41
6.35
 42
6.35000508
 43
6.35000508
 44
215.9
 45
279.4
 46
0.0
 47
0.0
 48
0.0
 49
0.0
140
0.0
141
0.0
142
1.0
143
1.0
 70
  1712
 72
     1
 73
     0
 74
     0
  7

 75
     0
 76
     0
 77
     2
 78
   300
147
1.0
148
0.0
149
0.0
100
AcDbLayout
  1
Model
 70
     1
 71
     0
 10
0.0
 20
0.0
 11
420.0
 21
297.0
 12
0.0
 22
0.0
 32
0.0
 14
-497.18473448496
 24
-156.858654729173
 34
0.0
 15
196.85567172222
 25
145.982844852065
 35
0.0
146
0.0
 13
0.0
 23
0.0
 33
0.0
 16
1.0
 26
0.0
 36
0.0
 17
0.0
 27
1.0
 37
0.0
 76
     0
330
1F
331
29
  0
MATERIAL
  5
45
102
{ACAD_REACTORS
330
43
102
}
330
43
100
AcDbMaterial
  1
ByBlock
 72
     1
 94
      127
  0
MATERIAL
  5
44
102
{ACAD_REACTORS
330
43
102
}
330
43
100
AcDbMaterial
  1
ByLayer
 72
     1
 94
      127
  0
MATERIAL
  5
46
102
{ACAD_REACTORS
330
43
102
}
330
43
100
AcDbMaterial
  1
Global
 72
     1
 94
      127
  0
MLEADERSTYLE
  5
6C
102
{ACAD_REACTORS
330
6B
102
}
330
6B
100
AcDbMLeaderStyle
179
     2
170
     2
171
     1
172
     0
 90
        2
 40
0.0
 41
0.0
173
     1
 91
-1056964608
340
14
 92
       -2
290
     1
 42
2.0
291
     1
 43
8.0
  3
Standard
341
0
 44
4.0
300

342
11
174
     1
178
     6
175
     1
176
     0
 93
-1056964608
 45
4.0
292
     0
297
     0
 46
4.0
343
0
 94
-1056964608
 47
1.0
 49
1.0
140
1.0
293
     1
141
0.0
294
     1
177
     0
142
1.0
295
     0
296
     0
143
3.75
271
     0
272
     9
273
     9
  0
MLINESTYLE
  5
18
102
{ACAD_REACTORS
330
17
102
}
330
17
100
AcDbMlineStyle
  2
Standard
 70
     0
  3

 62
   256
 51
90.0
 52
90.0
 71
     2
 49
0.5
 62
   256
  6
BYLAYER
 49
-0.5
 62
   256
  6
BYLAYER
  0
ACDBPLACEHOLDER
  5
F
102
{ACAD_REACTORS
330
E
102
}
330
E
  0
SCALE
  5
48
102
{ACAD_REACTORS
330
47
102
}
330
47
100
AcDbScale
 70
     0
300
1:1
140
1.0
141
1.0
290
     1
  0
SCALE
  5
49
102
{ACAD_REACTORS
330
47
102
}
330
47
100
AcDbScale
 70
     0
300
1:2
140
1.0
141
2.0
290
     0
  0
SCALE
  5
4A
102
{ACAD_REACTORS
330
47
102
}
330
47
100
AcDbScale
 70
     0
300
1:4
140
1.0
141
4.0
290
     0
  0
SCALE
  5
4B
102
{ACAD_REACTORS
330
47
102
}
330
47
100
AcDbScale
 70
     0
300
1:5
140
1.0
141
5.0
290
     0
  0
SCALE
  5
4C
102
{ACAD_REACTORS
330
47
102
}
330
47
100
AcDbScale
 70
     0
300
1:8
140
1.0
141
8.0
290
     0
  0
SCALE
  5
4D
102
{ACAD_REACTORS
330
47
102
}
330
47
100
AcDbScale
 70
     0
300
1:10
140
1.0
141
10.0
290
     0
  0
SCALE
  5
4E
102
{ACAD_REACTORS
330
47
102
}
330
47
100
AcDbScale
 70
     0
300
1:16
140
1.0
141
16.0
290
     0
  0
SCALE
  5
4F
102
{ACAD_REACTORS
330
47
102
}
330
47
100
AcDbScale
 70
     0
300
1:20
140
1.0
141
20.0
290
     0
  0
SCALE
  5
50
102
{ACAD_REACTORS
330
47
102
}
330
47
100
AcDbScale
 70
     0
300
1:30
140
1.0
141
30.0
290
     0
  0
SCALE
  5
51
102
{ACAD_REACTORS
330
47
102
}
330
47
100
AcDbScale
 70
     0
300
1:40
140
1.0
141
40.0
290
     0
  0
SCALE
  5
52
102
{ACAD_REACTORS
330
47
102
}
330
47
100
AcDbScale
 70
     0
300
1:50
140
1.0
141
50.0
290
     0
  0
SCALE
  5
53
102
{ACAD_REACTORS
330
47
102
}
330
47
100
AcDbScale
 70
     0
300
1:100
140
1.0
141
100.0
290
     0
  0
SCALE
  5
54
102
{ACAD_REACTORS
330
47
102
}
330
47
100
AcDbScale
 70
     0
300
2:1
140
2.0
141
1.0
290
     0
  0
SCALE
  5
55
102
{ACAD_REACTORS
330
47
102
}
330
47
100
AcDbScale
 70
     0
300
4:1
140
4.0
141
1.0
290
     0
  0
SCALE
  5
56
102
{ACAD_REACTORS
330
47
102
}
330
47
100
AcDbScale
 70
     0
300
8:1
140
8.0
141
1.0
290
     0
  0
SCALE
  5
57
102
{ACAD_REACTORS
330
47
102
}
330
47
100
AcDbScale
 70
     0
300
10:1
140
10.0
141
1.0
290
     0
  0
SCALE
  5
58
102
{ACAD_REACTORS
330
47
102
}
330
47
100
AcDbScale
 70
     0
300
100:1
140
100.0
141
1.0
290
     0
  0
SCALE
  5
59
102
{ACAD_REACTORS
330
47
102
}
330
47
100
AcDbScale
 70
     0
300
1/128" = 1'-0"
140
0.0078125
141
12.0
290
     0
  0
SCALE
  5
5A
102
{ACAD_REACTORS
330
47
102
}
330
47
100
AcDbScale
 70
     0
300
1/64" = 1'-0"
140
0.015625
141
12.0
290
     0
  0
SCALE
  5
5B
102
{ACAD_REACTORS
330
47
102
}
330
47
100
AcDbScale
 70
     0
300
1/32" = 1'-0"
140
0.03125
141
12.0
290
     0
  0
SCALE
  5
5C
102
{ACAD_REACTORS
330
47
102
}
330
47
100
AcDbScale
 70
     0
300
1/16" = 1'-0"
140
0.0625
141
12.0
290
     0
  0
SCALE
  5
5D
102
{ACAD_REACTORS
330
47
102
}
330
47
100
AcDbScale
 70
     0
300
3/32" = 1'-0"
140
0.09375
141
12.0
290
     0
  0
SCALE
  5
5E
102
{ACAD_REACTORS
330
47
102
}
330
47
100
AcDbScale
 70
     0
300
1/8" = 1'-0"
140
0.125
141
12.0
290
     0
  0
SCALE
  5
5F
102
{ACAD_REACTORS
330
47
102
}
330
47
100
AcDbScale
 70
     0
300
3/16" = 1'-0"
140
0.1875
141
12.0
290
     0
  0
SCALE
  5
60
102
{ACAD_REACTORS
330
47
102
}
330
47
100
AcDbScale
 70
     0
300
1/4" = 1'-0"
140
0.25
141
12.0
290
     0
  0
SCALE
  5
61
102
{ACAD_REACTORS
330
47
102
}
330
47
100
AcDbScale
 70
     0
300
3/8" = 1'-0"
140
0.375
141
12.0
290
     0
  0
SCALE
  5
62
102
{ACAD_REACTORS
330
47
102
}
330
47
100
AcDbScale
 70
     0
300
1/2" = 1'-0"
140
0.5
141
12.0
290
     0
  0
SCALE
  5
63
102
{ACAD_REACTORS
330
47
102
}
330
47
100
AcDbScale
 70
     0
300
3/4" = 1'-0"
140
0.75
141
12.0
290
     0
  0
SCALE
  5
64
102
{ACAD_REACTORS
330
47
102
}
330
47
100
AcDbScale
 70
     0
300
1" = 1'-0"
140
1.0
141
12.0
290
     0
  0
SCALE
  5
65
102
{ACAD_REACTORS
330
47
102
}
330
47
100
AcDbScale
 70
     0
300
1-1/2" = 1'-0"
140
1.5
141
12.0
290
     0
  0
SCALE
  5
66
102
{ACAD_REACTORS
330
47
102
}
330
47
100
AcDbScale
 70
     0
300
3" = 1'-0"
140
3.0
141
12.0
290
     0
  0
SCALE
  5
67
102
{ACAD_REACTORS
330
47
102
}
330
47
100
AcDbScale
 70
     0
300
6" = 1'-0"
140
6.0
141
12.0
290
     0
  0
SCALE
  5
68
102
{ACAD_REACTORS
330
47
102
}
330
47
100
AcDbScale
 70
     0
300
1'-0" = 1'-0"
140
12.0
141
12.0
290
     0
  0
TABLESTYLE
  5
6A
102
{ACAD_REACTORS
330
69
102
}
102
{ACAD_XDICTIONARY
360
281
102
}
330
69
100
AcDbTableStyle
  3
Standard
 70
     0
 71
     0
 40
0.06
 41
0.06
280
     0
281
     0
  7
Standard
140
4.5
170
     2
 62
     0
 63
   257
283
     0
 90
        4
 91
        0
  1

274
    -2
284
     1
 64
     0
275
    -2
285
     1
 65
     0
276
    -2
286
     1
 66
     0
277
    -2
287
     1
 67
     0
278
    -2
288
     1
 68
     0
279
    -2
289
     1
 69
     0
  7
Standard
140
6.0
170
     5
 62
     0
 63
   257
283
     0
 90
        4
 91
        0
  1

274
    -2
284
     1
 64
     0
275
    -2
285
     1
 65
     0
276
    -2
286
     1
 66
     0
277
    -2
287
     1
 67
     0
278
    -2
288
     1
 68
     0
279
    -2
289
     1
 69
     0
  7
Standard
140
4.5
170
     5
 62
     0
 63
   257
283
     0
 90
        4
 91
        0
  1

274
    -2
284
     1
 64
     0
275
    -2
285
     1
 65
     0
276
    -2
286
     1
 66
     0
277
    -2
287
     1
 67
     0
278
    -2
288
     1
 68
     0
279
    -2
289
     1
 69
     0
  0
VISUALSTYLE
  5
2F
102
{ACAD_REACTORS
330
2A
102
}
102
{ACAD_XDICTIONARY
360
259
102
}
330
2A
100
AcDbVisualStyle
  2
2dWireframe
 70
     4
177
     2
291
     0
 71
     0
176
     1
 72
     2
176
     1
 73
     0
176
     1
 90
        0
176
     1
 40
0.6
176
     1
 41
30.0
176
     1
 62
     5
 63
     7
421
 16777215
176
     1
 74
     1
176
     1
 91
        4
176
     1
 64
     7
176
     1
 65
   257
176
     1
 75
     1
176
     1
175
     1
176
     1
 42
1.0
176
     1
 92
        0
176
     1
 66
   257
176
     1
 43
1.0
176
     1
 76
     1
176
     1
 77
     6
176
     1
 78
     2
176
     1
 67
     7
176
     1
 79
     5
176
     1
170
     0
176
     1
171
     0
176
     1
290
     0
176
     1
 93
        1
176
     1
 44
0.0
176
     1
173
     0
176
     1
  0
VISUALSTYLE
  5
32
102
{ACAD_REACTORS
330
2A
102
}
102
{ACAD_XDICTIONARY
360
25F
102
}
330
2A
100
AcDbVisualStyle
  2
Basic
 70
     7
177
     2
291
     1
 71
     1
176
     1
 72
     0
176
     1
 73
     1
176
     1
 90
        0
176
     1
 40
0.6
176
     1
 41
30.0
176
     1
 62
     5
 63
     7
421
 16777215
176
     1
 74
     0
176
     1
 91
        4
176
     1
 64
     7
176
     1
 65
   257
176
     1
 75
     1
176
     1
175
     1
176
     1
 42
1.0
176
     1
 92
        8
176
     1
 66
     7
176
     1
 43
1.0
176
     1
 76
     1
176
     1
 77
     6
176
     1
 78
     2
176
     1
 67
     7
176
     1
 79
     5
176
     1
170
     0
176
     1
171
     0
176
     1
290
     0
176
     1
 93
        1
176
     1
 44
0.0
176
     1
173
     0
176
     1
  0
VISUALSTYLE
  5
36
102
{ACAD_REACTORS
330
2A
102
}
102
{ACAD_XDICTIONARY
360
267
102
}
330
2A
100
AcDbVisualStyle
  2
Brighten
 70
    12
177
     2
291
     1
 71
     2
176
     1
 72
     2
176
     1
 73
     0
176
     1
 90
        0
176
     1
 40
0.6
176
     1
 41
30.0
176
     1
 62
     5
 63
     7
421
 16777215
176
     1
 74
     1
176
     1
 91
        4
176
     1
 64
     7
176
     1
 65
   257
176
     1
 75
     1
176
     1
175
     1
176
     1
 42
1.0
176
     1
 92
        8
176
     1
 66
     7
176
     1
 43
1.0
176
     1
 76
     1
176
     1
 77
     6
176
     1
 78
     2
176
     1
 67
     7
176
     1
 79
     5
176
     1
170
     0
176
     1
171
     0
176
     1
290
     0
176
     1
 93
        1
176
     1
 44
50.0
176
     1
173
     0
176
     1
  0
VISUALSTYLE
  5
3A
102
{ACAD_REACTORS
330
2A
102
}
102
{ACAD_XDICTIONARY
360
26F
102
}
330
2A
100
AcDbVisualStyle
  2
ColorChange
 70
    16
177
     2
291
     1
 71
     2
176
     1
 72
     2
176
     1
 73
     3
176
     1
 90
        0
176
     1
 40
0.6
176
     1
 41
30.0
176
     1
 62
     5
 63
     8
421
  8421504
176
     1
 74
     1
176
     1
 91
        4
176
     1
 64
     7
176
     1
 65
   257
176
     1
 75
     1
176
     1
175
     1
176
     1
 42
1.0
176
     1
 92
        8
176
     1
 66
     8
424
  8421504
176
     1
 43
1.0
176
     1
 76
     1
176
     1
 77
     6
176
     1
 78
     2
176
     1
 67
     7
176
     1
 79
     5
176
     1
170
     0
176
     1
171
     0
176
     1
290
     0
176
     1
 93
        1
176
     1
 44
0.0
176
     1
173
     0
176
     1
  0
VISUALSTYLE
  5
34
102
{ACAD_REACTORS
330
2A
102
}
102
{ACAD_XDICTIONARY
360
263
102
}
330
2A
100
AcDbVisualStyle
  2
Conceptual
 70
     9
177
     2
291
     0
 71
     3
176
     1
 72
     2
176
     1
 73
     0
176
     1
 90
        0
176
     1
 40
0.6
176
     1
 41
30.0
176
     1
 62
     5
 63
     7
421
 16777215
176
     1
 74
     2
176
     1
 91
        2
176
     1
 64
     7
176
     1
 65
   257
176
     1
 75
     1
176
     1
175
     1
176
     1
 42
179.0
176
     1
 92
        8
176
     1
 66
     7
176
     1
 43
1.0
176
     1
 76
     1
176
     1
 77
     6
176
     1
 78
     2
176
     1
 67
     7
176
     1
 79
     3
176
     1
170
     0
176
     1
171
     0
176
     1
290
     0
176
     1
 93
        1
176
     1
 44
0.0
176
     1
173
     0
176
     1
  0
VISUALSTYLE
  5
35
102
{ACAD_REACTORS
330
2A
102
}
102
{ACAD_XDICTIONARY
360
265
102
}
330
2A
100
AcDbVisualStyle
  2
Dim
 70
    11
177
     2
291
     1
 71
     2
176
     1
 72
     2
176
     1
 73
     0
176
     1
 90
        0
176
     1
 40
0.6
176
     1
 41
30.0
176
     1
 62
     5
 63
     7
421
 16777215
176
     1
 74
     1
176
     1
 91
        4
176
     1
 64
     7
176
     1
 65
   257
176
     1
 75
     1
176
     1
175
     1
176
     1
 42
1.0
176
     1
 92
        8
176
     1
 66
     7
176
     1
 43
1.0
176
     1
 76
     1
176
     1
 77
     6
176
     1
 78
     2
176
     1
 67
     7
176
     1
 79
     5
176
     1
170
     0
176
     1
171
     0
176
     1
290
     0
176
     1
 93
        1
176
     1
 44
-50.0
176
     1
173
     0
176
     1
  0
VISUALSTYLE
  5
3D
102
{ACAD_REACTORS
330
2A
102
}
102
{ACAD_XDICTIONARY
360
275
102
}
330
2A
100
AcDbVisualStyle
  2
EdgeColorOff
 70
    22
177
     2
291
     1
 71
     2
176
     0
 72
     2
176
     0
 73
     0
176
     0
 90
        0
176
     0
 40
0.6
176
     0
 41
30.0
176
     0
 62
     5
 63
     7
421
 16777215
176
     0
 74
     1
176
     0
 91
        4
176
     0
 64
     7
176
     0
 65
   257
176
     0
 75
     1
176
     0
175
     1
176
     0
 42
1.0
176
     0
 92
        8
176
     2
 66
     7
176
     0
 43
1.0
176
     0
 76
     1
176
     0
 77
     6
176
     0
 78
     2
176
     0
 67
     7
176
     0
 79
     5
176
     0
170
     0
176
     0
171
     0
176
     0
290
     0
176
     0
 93
        1
176
     0
 44
0.0
176
     0
173
     0
176
     0
  0
VISUALSTYLE
  5
39
102
{ACAD_REACTORS
330
2A
102
}
102
{ACAD_XDICTIONARY
360
26D
102
}
330
2A
100
AcDbVisualStyle
  2
Facepattern
 70
    15
177
     2
291
     1
 71
     2
176
     1
 72
     2
176
     1
 73
     0
176
     1
 90
        0
176
     1
 40
0.6
176
     1
 41
30.0
176
     1
 62
     5
 63
     7
421
 16777215
176
     1
 74
     1
176
     1
 91
        4
176
     1
 64
     7
176
     1
 65
   257
176
     1
 75
     1
176
     1
175
     1
176
     1
 42
1.0
176
     1
 92
        8
176
     1
 66
     7
176
     1
 43
1.0
176
     1
 76
     1
176
     1
 77
     6
176
     1
 78
     2
176
     1
 67
     7
176
     1
 79
     5
176
     1
170
     0
176
     1
171
     0
176
     1
290
     0
176
     1
 93
        1
176
     1
 44
0.0
176
     1
173
     0
176
     1
  0
VISUALSTYLE
  5
2B
102
{ACAD_REACTORS
330
2A
102
}
102
{ACAD_XDICTIONARY
360
251
102
}
330
2A
100
AcDbVisualStyle
  2
Flat
 70
     0
177
     2
291
     1
 71
     2
176
     1
 72
     1
176
     1
 73
     1
176
     1
 90
        2
176
     1
 40
0.6
176
     1
 41
30.0
176
     1
 62
     5
 63
     7
421
 16777215
176
     1
 74
     0
176
     1
 91
        0
176
     1
 64
     7
176
     1
 65
   257
176
     1
 75
     1
176
     1
175
     1
176
     1
 42
1.0
176
     1
 92
        8
176
     1
 66
     7
176
     1
 43
1.0
176
     1
 76
     1
176
     1
 77
     6
176
     1
 78
     2
176
     1
 67
     7
176
     1
 79
     5
176
     1
170
     0
176
     1
171
     0
176
     1
290
     0
176
     1
 93
       13
176
     1
 44
0.0
176
     1
173
     0
176
     1
  0
VISUALSTYLE
  5
2C
102
{ACAD_REACTORS
330
2A
102
}
102
{ACAD_XDICTIONARY
360
253
102
}
330
2A
100
AcDbVisualStyle
  2
FlatWithEdges
 70
     1
177
     2
291
     1
 71
     2
176
     1
 72
     1
176
     1
 73
     1
176
     1
 90
        2
176
     1
 40
0.6
176
     1
 41
30.0
176
     1
 62
     5
 63
     7
421
 16777215
176
     1
 74
     1
176
     1
 91
        0
176
     1
 64
     7
176
     1
 65
   257
176
     1
 75
     1
176
     1
175
     1
176
     1
 42
1.0
176
     1
 92
        0
176
     1
 66
   257
176
     1
 43
1.0
176
     1
 76
     1
176
     1
 77
     6
176
     1
 78
     2
176
     1
 67
     7
176
     1
 79
     5
176
     1
170
     0
176
     1
171
     0
176
     1
290
     0
176
     1
 93
       13
176
     1
 44
0.0
176
     1
173
     0
176
     1
  0
VISUALSTYLE
  5
2D
102
{ACAD_REACTORS
330
2A
102
}
102
{ACAD_XDICTIONARY
360
255
102
}
330
2A
100
AcDbVisualStyle
  2
Gouraud
 70
     2
177
     2
291
     1
 71
     2
176
     1
 72
     2
176
     1
 73
     1
176
     1
 90
        2
176
     1
 40
0.6
176
     1
 41
30.0
176
     1
 62
     5
 63
     7
421
 16777215
176
     1
 74
     0
176
     1
 91
        0
176
     1
 64
     7
176
     1
 65
   257
176
     1
 75
     1
176
     1
175
     1
176
     1
 42
1.0
176
     1
 92
        0
176
     1
 66
     7
176
     1
 43
1.0
176
     1
 76
     1
176
     1
 77
     6
176
     1
 78
     2
176
     1
 67
     7
176
     1
 79
     5
176
     1
170
     0
176
     1
171
     0
176
     1
290
     0
176
     1
 93
       13
176
     1
 44
0.0
176
     1
173
     0
176
     1
  0
VISUALSTYLE
  5
2E
102
{ACAD_REACTORS
330
2A
102
}
102
{ACAD_XDICTIONARY
360
257
102
}
330
2A
100
AcDbVisualStyle
  2
GouraudWithEdges
 70
     3
177
     2
291
     1
 71
     2
176
     1
 72
     2
176
     1
 73
     1
176
     1
 90
        2
176
     1
 40
0.6
176
     1
 41
30.0
176
     1
 62
     5
 63
     7
421
 16777215
176
     1
 74
     1
176
     1
 91
        0
176
     1
 64
     7
176
     1
 65
   257
176
     1
 75
     1
176
     1
175
     1
176
     1
 42
1.0
176
     1
 92
        0
176
     1
 66
   257
176
     1
 43
1.0
176
     1
 76
     1
176
     1
 77
     6
176
     1
 78
     2
176
     1
 67
     7
176
     1
 79
     5
176
     1
170
     0
176
     1
171
     0
176
     1
290
     0
176
     1
 93
       13
176
     1
 44
0.0
176
     1
173
     0
176
     1
  0
VISUALSTYLE
  5
31
102
{ACAD_REACTORS
330
2A
102
}
102
{ACAD_XDICTIONARY
360
25D
102
}
330
2A
100
AcDbVisualStyle
  2
Hidden
 70
     6
177
     2
291
     0
 71
     1
176
     1
 72
     2
176
     1
 73
     2
176
     1
 90
        0
176
     1
 40
0.6
176
     1
 41
30.0
176
     1
 62
     5
 63
     7
421
 16777215
176
     1
 74
     2
176
     1
 91
        2
176
     1
 64
     7
176
     1
 65
   257
176
     1
 75
     2
176
     1
175
     1
176
     1
 42
40.0
176
     1
 92
        0
176
     1
 66
   257
176
     1
 43
1.0
176
     1
 76
     1
176
     1
 77
     6
176
     1
 78
     2
176
     1
 67
     7
176
     1
 79
     3
176
     1
170
     0
176
     1
171
     0
176
     1
290
     0
176
     1
 93
        1
176
     1
 44
0.0
176
     1
173
     0
176
     1
  0
VISUALSTYLE
  5
3B
102
{ACAD_REACTORS
330
2A
102
}
102
{ACAD_XDICTIONARY
360
271
102
}
330
2A
100
AcDbVisualStyle
  2
JitterOff
 70
    20
177
     2
291
     1
 71
     2
176
     0
 72
     2
176
     0
 73
     0
176
     0
 90
        0
176
     0
 40
0.6
176
     0
 41
30.0
176
     0
 62
     5
 63
     7
421
 16777215
176
     0
 74
     1
176
     0
 91
        4
176
     0
 64
     7
176
     0
 65
   257
176
     0
 75
     1
176
     0
175
     1
176
     0
 42
1.0
176
     0
 92
       10
176
     2
 66
     7
176
     0
 43
1.0
176
     0
 76
     1
176
     0
 77
     6
176
     0
 78
     2
176
     0
 67
     7
176
     0
 79
     5
176
     0
170
     0
176
     0
171
     0
176
     0
290
     0
176
     0
 93
        1
176
     0
 44
0.0
176
     0
173
     0
176
     0
  0
VISUALSTYLE
  5
38
102
{ACAD_REACTORS
330
2A
102
}
102
{ACAD_XDICTIONARY
360
26B
102
}
330
2A
100
AcDbVisualStyle
  2
Linepattern
 70
    14
177
     2
291
     1
 71
     2
176
     1
 72
     2
176
     1
 73
     0
176
     1
 90
        0
176
     1
 40
0.6
176
     1
 41
30.0
176
     1
 62
     5
 63
     7
421
 16777215
176
     1
 74
     1
176
     1
 91
        4
176
     1
 64
     7
176
     1
 65
   257
176
     1
 75
     7
176
     1
175
     7
176
     1
 42
1.0
176
     1
 92
        8
176
     1
 66
     7
176
     1
 43
1.0
176
     1
 76
     1
176
     1
 77
     6
176
     1
 78
     2
176
     1
 67
     7
176
     1
 79
     5
176
     1
170
     0
176
     1
171
     0
176
     1
290
     0
176
     1
 93
        1
176
     1
 44
0.0
176
     1
173
     0
176
     1
  0
VISUALSTYLE
  5
3C
102
{ACAD_REACTORS
330
2A
102
}
102
{ACAD_XDICTIONARY
360
273
102
}
330
2A
100
AcDbVisualStyle
  2
OverhangOff
 70
    21
177
     2
291
     1
 71
     2
176
     0
 72
     2
176
     0
 73
     0
176
     0
 90
        0
176
     0
 40
0.6
176
     0
 41
30.0
176
     0
 62
     5
 63
     7
421
 16777215
176
     0
 74
     1
176
     0
 91
        4
176
     0
 64
     7
176
     0
 65
   257
176
     0
 75
     1
176
     0
175
     1
176
     0
 42
1.0
176
     0
 92
        9
176
     2
 66
     7
176
     0
 43
1.0
176
     0
 76
     1
176
     0
 77
     6
176
     0
 78
     2
176
     0
 67
     7
176
     0
 79
     5
176
     0
170
     0
176
     0
171
     0
176
     0
290
     0
176
     0
 93
        1
176
     0
 44
0.0
176
     0
173
     0
176
     0
  0
VISUALSTYLE
  5
33
102
{ACAD_REACTORS
330
2A
102
}
102
{ACAD_XDICTIONARY
360
261
102
}
330
2A
100
AcDbVisualStyle
  2
Realistic
 70
     8
177
     2
291
     0
 71
     2
176
     1
 72
     3
176
     1
 73
     0
176
     1
 90
        2
176
     1
 40
0.6
176
     1
 41
30.0
176
     1
 62
     5
 63
     7
421
 16777215
176
     1
 74
     0
176
     1
 91
        0
176
     1
 64
     7
176
     1
 65
   257
176
     1
 75
     1
176
     1
175
     1
176
     1
 42
1.0
176
     1
 92
        8
176
     1
 66
   257
176
     1
 43
1.0
176
     1
 76
     1
176
     1
 77
     6
176
     1
 78
     2
176
     1
 67
     7
176
     1
 79
     3
176
     1
170
     0
176
     1
171
     0
176
     1
290
     0
176
     1
 93
       13
176
     1
 44
0.0
176
     1
173
     0
176
     1
  0
VISUALSTYLE
  5
42
102
{ACAD_REACTORS
330
2A
102
}
102
{ACAD_XDICTIONARY
360
27F
102
}
330
2A
100
AcDbVisualStyle
  2
Shaded
 70
    27
177
     2
291
     0
 71
     2
176
     1
 72
     2
176
     1
 73
     1
176
     1
 90
        2
176
     1
 40
0.6
176
     1
 41
30.0
176
     1
 62
     5
 63
     7
421
 16777215
176
     1
 74
     0
176
     1
 91
        4
176
     1
 64
     7
176
     1
 65
   257
176
     1
 75
     1
176
     1
175
     1
176
     1
 42
1.0
176
     1
 92
        8
176
     1
 66
   257
176
     1
 43
1.0
176
     1
 76
     1
176
     1
 77
     6
176
     1
 78
     2
176
     1
 67
     8
425
  7895160
176
     1
 79
     3
176
     1
170
     0
176
     1
171
     0
176
     1
290
     0
176
     1
 93
        5
176
     1
 44
0.0
176
     1
173
     0
176
     1
  0
VISUALSTYLE
  5
41
102
{ACAD_REACTORS
330
2A
102
}
102
{ACAD_XDICTIONARY
360
27D
102
}
330
2A
100
AcDbVisualStyle
  2
Shaded with edges
 70
    26
177
     2
291
     0
 71
     2
176
     1
 72
     2
176
     1
 73
     1
176
     1
 90
        2
176
     1
 40
0.6
176
     1
 41
30.0
176
     1
 62
     5
 63
     7
421
 16777215
176
     1
 74
     1
176
     1
 91
       10
176
     1
 64
     7
176
     1
 65
   257
176
     1
 75
     2
176
     1
175
     1
176
     1
 42
1.0
176
     1
 92
        8
176
     1
 66
   257
176
     1
 43
1.0
176
     1
 76
     1
176
     1
 77
     6
176
     1
 78
     2
176
     1
 67
     7
176
     1
 79
     3
176
     1
170
     0
176
     1
171
     0
176
     1
290
     0
176
     1
 93
        5
176
     1
 44
0.0
176
     1
173
     0
176
     1
  0
VISUALSTYLE
  5
3E
102
{ACAD_REACTORS
330
2A
102
}
102
{ACAD_XDICTIONARY
360
277
102
}
330
2A
100
AcDbVisualStyle
  2
Shades of Gray
 70
    23
177
     2
291
     0
 71
     2
176
     1
 72
     2
176
     1
 73
     3
176
     1
 90
        0
176
     1
 40
0.6
176
     1
 41
30.0
176
     1
 62
     5
 63
     7
421
 16777215
176
     1
 74
     2
176
     1
 91
        2
176
     1
 64
     7
176
     1
 65
     7
176
     1
 75
     1
176
     1
175
     1
176
     1
 42
40.0
176
     1
 92
        8
176
     1
 66
     7
176
     1
 43
1.0
176
     1
 76
     1
176
     1
 77
     6
176
     1
 78
     2
176
     1
 67
     7
176
     1
 79
     3
176
     1
170
     0
176
     1
171
     0
176
     1
290
     0
176
     1
 93
        1
176
     1
 44
0.0
176
     1
173
     0
176
     1
  0
VISUALSTYLE
  5
3F
102
{ACAD_REACTORS
330
2A
102
}
102
{ACAD_XDICTIONARY
360
279
102
}
330
2A
100
AcDbVisualStyle
  2
Sketchy
 70
    24
177
     2
291
     0
 71
     1
176
     1
 72
     2
176
     1
 73
     2
176
     1
 90
        0
176
     1
 40
0.6
176
     1
 41
30.0
176
     1
 62
     5
 63
     7
421
 16777215
176
     1
 74
     2
176
     1
 91
        2
176
     1
 64
     7
176
     1
 65
     7
176
     1
 75
     1
176
     1
175
     1
176
     1
 42
40.0
176
     1
 92
       11
176
     1
 66
     7
176
     1
 43
1.0
176
     1
 76
     1
176
     1
 77
     6
176
     1
 78
     2
176
     1
 67
     7
176
     1
 79
     6
176
     1
170
     0
176
     1
171
     0
176
     1
290
     0
176
     1
 93
        1
176
     1
 44
0.0
176
     1
173
     0
176
     1
  0
VISUALSTYLE
  5
37
102
{ACAD_REACTORS
330
2A
102
}
102
{ACAD_XDICTIONARY
360
269
102
}
330
2A
100
AcDbVisualStyle
  2
Thicken
 70
    13
177
     2
291
     1
 71
     2
176
     1
 72
     2
176
     1
 73
     0
176
     1
 90
        0
176
     1
 40
0.6
176
     1
 41
30.0
176
     1
 62
     5
 63
     7
421
 16777215
176
     1
 74
     1
176
     1
 91
        4
176
     1
 64
     7
176
     1
 65
   257
176
     1
 75
     1
176
     1
175
     1
176
     1
 42
1.0
176
     1
 92
       12
176
     1
 66
     7
176
     1
 43
1.0
176
     1
 76
     1
176
     1
 77
     6
176
     1
 78
     2
176
     1
 67
     7
176
     1
 79
     5
176
     1
170
     0
176
     1
171
     0
176
     1
290
     0
176
     1
 93
        1
176
     1
 44
0.0
176
     1
173
     0
176
     1
  0
VISUALSTYLE
  5
30
102
{ACAD_REACTORS
330
2A
102
}
102
{ACAD_XDICTIONARY
360
25B
102
}
330
2A
100
AcDbVisualStyle
  2
Wireframe
 70
     5
177
     2
291
     0
 71
     0
176
     1
 72
     2
176
     1
 73
     0
176
     1
 90
        0
176
     1
 40
0.6
176
     1
 41
30.0
176
     1
 62
     5
 63
     7
421
 16777215
176
     1
 74
     1
176
     1
 91
        4
176
     1
 64
     7
176
     1
 65
   257
176
     1
 75
     1
176
     1
175
     1
176
     1
 42
1.0
176
     1
 92
        0
176
     1
 66
   257
176
     1
 43
1.0
176
     1
 76
     1
176
     1
 77
     6
176
     1
 78
     2
176
     1
 67
     7
176
     1
 79
     3
176
     1
170
     0
176
     1
171
     0
176
     1
290
     0
176
     1
 93
        1
176
     1
 44
0.0
176
     1
173
     0
176
     1
  0
VISUALSTYLE
  5
40
102
{ACAD_REACTORS
330
2A
102
}
102
{ACAD_XDICTIONARY
360
27B
102
}
330
2A
100
AcDbVisualStyle
  2
X-Ray
 70
    25
177
     2
291
     0
 71
     2
176
     1
 72
     2
176
     1
 73
     1
176
     1
 90
        1
176
     1
 40
0.5
176
     1
 41
30.0
176
     1
 62
     5
 63
     7
421
 16777215
176
     1
 74
     1
176
     1
 91
        0
176
     1
 64
     7
176
     1
 65
   257
176
     1
 75
     1
176
     1
175
     1
176
     1
 42
1.0
176
     1
 92
        8
176
     1
 66
     7
176
     1
 43
1.0
176
     1
 76
     1
176
     1
 77
     6
176
     1
 78
     2
176
     1
 67
     7
176
     1
 79
     3
176
     1
170
     0
176
     1
171
     0
176
     1
290
     0
176
     1
 93
       13
176
     1
 44
0.0
176
     1
173
     0
176
     1
  0
DICTIONARYVAR
  5
250
102
{ACAD_REACTORS
330
24F
102
}
330
24F
100
DictionaryVariables
280
     0
  1
1:1
  0
DICTIONARYVAR
  5
28A
102
{ACAD_REACTORS
330
24F
102
}
330
24F
100
DictionaryVariables
280
     0
  1
3.500000
  0
DICTIONARYVAR
  5
28B
102
{ACAD_REACTORS
330
24F
102
}
330
24F
100
DictionaryVariables
280
     0
  1
acadiso.lin
  0
DICTIONARYVAR
  5
286
102
{ACAD_REACTORS
330
24F
102
}
330
24F
100
DictionaryVariables
280
     0
  1
Standard
  0
DICTIONARYVAR
  5
285
102
{ACAD_REACTORS
330
24F
102
}
330
24F
100
DictionaryVariables
280
     0
  1
Standard
  0
DICTIONARYVAR
  5
289
102
{ACAD_REACTORS
330
24F
102
}
330
24F
100
DictionaryVariables
280
     0
  1
0
  0
DICTIONARY
  5
281
330
6A
100
AcDbDictionary
280
     1
281
     1
  3
ACAD_ROUNDTRIP_2008_TABLESTYLE_CELLSTYLEMAP
360
282
  0
DICTIONARY
  5
259
330
2F
100
AcDbDictionary
280
     1
281
     1
  3
ACAD_XREC_ROUNDTRIP
360
25A
  0
DICTIONARY
  5
25F
330
32
100
AcDbDictionary
280
     1
281
     1
  3
ACAD_XREC_ROUNDTRIP
360
260
  0
DICTIONARY
  5
267
330
36
100
AcDbDictionary
280
     1
281
     1
  3
ACAD_XREC_ROUNDTRIP
360
268
  0
DICTIONARY
  5
26F
330
3A
100
AcDbDictionary
280
     1
281
     1
  3
ACAD_XREC_ROUNDTRIP
360
270
  0
DICTIONARY
  5
263
330
34
100
AcDbDictionary
280
     1
281
     1
  3
ACAD_XREC_ROUNDTRIP
360
264
  0
DICTIONARY
  5
265
330
35
100
AcDbDictionary
280
     1
281
     1
  3
ACAD_XREC_ROUNDTRIP
360
266
  0
DICTIONARY
  5
275
330
3D
100
AcDbDictionary
280
     1
281
     1
  3
ACAD_XREC_ROUNDTRIP
360
276
  0
DICTIONARY
  5
26D
330
39
100
AcDbDictionary
280
     1
281
     1
  3
ACAD_XREC_ROUNDTRIP
360
26E
  0
DICTIONARY
  5
251
330
2B
100
AcDbDictionary
280
     1
281
     1
  3
ACAD_XREC_ROUNDTRIP
360
252
  0
DICTIONARY
  5
253
330
2C
100
AcDbDictionary
280
     1
281
     1
  3
ACAD_XREC_ROUNDTRIP
360
254
  0
DICTIONARY
  5
255
330
2D
100
AcDbDictionary
280
     1
281
     1
  3
ACAD_XREC_ROUNDTRIP
360
256
  0
DICTIONARY
  5
257
330
2E
100
AcDbDictionary
280
     1
281
     1
  3
ACAD_XREC_ROUNDTRIP
360
258
  0
DICTIONARY
  5
25D
330
31
100
AcDbDictionary
280
     1
281
     1
  3
ACAD_XREC_ROUNDTRIP
360
25E
  0
DICTIONARY
  5
271
330
3B
100
AcDbDictionary
280
     1
281
     1
  3
ACAD_XREC_ROUNDTRIP
360
272
  0
DICTIONARY
  5
26B
330
38
100
AcDbDictionary
280
     1
281
     1
  3
ACAD_XREC_ROUNDTRIP
360
26C
  0
DICTIONARY
  5
273
330
3C
100
AcDbDictionary
280
     1
281
     1
  3
ACAD_XREC_ROUNDTRIP
360
274
  0
DICTIONARY
  5
261
330
33
100
AcDbDictionary
280
     1
281
     1
  3
ACAD_XREC_ROUNDTRIP
360
262
  0
DICTIONARY
  5
27F
330
42
100
AcDbDictionary
280
     1
281
     1
  3
ACAD_XREC_ROUNDTRIP
360
280
  0
DICTIONARY
  5
27D
330
41
100
AcDbDictionary
280
     1
281
     1
  3
ACAD_XREC_ROUNDTRIP
360
27E
  0
DICTIONARY
  5
277
330
3E
100
AcDbDictionary
280
     1
281
     1
  3
ACAD_XREC_ROUNDTRIP
360
278
  0
DICTIONARY
  5
279
330
3F
100
AcDbDictionary
280
     1
281
     1
  3
ACAD_XREC_ROUNDTRIP
360
27A
  0
DICTIONARY
  5
269
330
37
100
AcDbDictionary
280
     1
281
     1
  3
ACAD_XREC_ROUNDTRIP
360
26A
  0
DICTIONARY
  5
25B
330
30
100
AcDbDictionary
280
     1
281
     1
  3
ACAD_XREC_ROUNDTRIP
360
25C
  0
DICTIONARY
  5
27B
330
40
100
AcDbDictionary
280
     1
281
     1
  3
ACAD_XREC_ROUNDTRIP
360
27C
  0
CELLSTYLEMAP
  5
282
102
{ACAD_REACTORS
330
281
102
}
330
281
100
AcDbCellStyleMap
 90
        3
300
CELLSTYLE
  1
TABLEFORMAT_BEGIN
 90
        5
170
     1
 91
        0
 92
    32768
 62
   257
 93
        1
300
CONTENTFORMAT
  1
CONTENTFORMAT_BEGIN
 90
        0
 91
        0
 92
        4
 93
        0
300

 40
0.0
140
1.0
 94
        5
 62
     0
340
11
144
6.0
309
CONTENTFORMAT_END
171
     1
301
MARGIN
  1
CELLMARGIN_BEGIN
 40
1.5
 40
1.5
 40
1.5
 40
1.5
 40
1.5
 40
1.5
309
CELLMARGIN_END
 94
        6
 95
        1
302
GRIDFORMAT
  1
GRIDFORMAT_BEGIN
 90
        0
 91
        1
 62
     0
 92
       -2
340
14
 93
        0
 40
0.045
309
GRIDFORMAT_END
 95
        2
302
GRIDFORMAT
  1
GRIDFORMAT_BEGIN
 90
        0
 91
        1
 62
     0
 92
       -2
340
14
 93
        0
 40
0.045
309
GRIDFORMAT_END
 95
        4
302
GRIDFORMAT
  1
GRIDFORMAT_BEGIN
 90
        0
 91
        1
 62
     0
 92
       -2
340
14
 93
        0
 40
0.045
309
GRIDFORMAT_END
 95
        8
302
GRIDFORMAT
  1
GRIDFORMAT_BEGIN
 90
        0
 91
        1
 62
     0
 92
       -2
340
14
 93
        0
 40
0.045
309
GRIDFORMAT_END
 95
       16
302
GRIDFORMAT
  1
GRIDFORMAT_BEGIN
 90
        0
 91
        1
 62
     0
 92
       -2
340
14
 93
        0
 40
0.045
309
GRIDFORMAT_END
 95
       32
302
GRIDFORMAT
  1
GRIDFORMAT_BEGIN
 90
        0
 91
        1
 62
     0
 92
       -2
340
14
 93
        0
 40
0.045
309
GRIDFORMAT_END
309
TABLEFORMAT_END
  1
CELLSTYLE_BEGIN
 90
        1
 91
        1
300
_TITLE
309
CELLSTYLE_END
300
CELLSTYLE
  1
TABLEFORMAT_BEGIN
 90
        5
170
     1
 91
        0
 92
        0
 62
   257
 93
        1
300
CONTENTFORMAT
  1
CONTENTFORMAT_BEGIN
 90
        0
 91
        0
 92
        4
 93
        0
300

 40
0.0
140
1.0
 94
        5
 62
     0
340
11
144
4.5
309
CONTENTFORMAT_END
171
     1
301
MARGIN
  1
CELLMARGIN_BEGIN
 40
1.5
 40
1.5
 40
1.5
 40
1.5
 40
1.5
 40
1.5
309
CELLMARGIN_END
 94
        6
 95
        1
302
GRIDFORMAT
  1
GRIDFORMAT_BEGIN
 90
        0
 91
        1
 62
     0
 92
       -2
340
14
 93
        0
 40
0.045
309
GRIDFORMAT_END
 95
        2
302
GRIDFORMAT
  1
GRIDFORMAT_BEGIN
 90
        0
 91
        1
 62
     0
 92
       -2
340
14
 93
        0
 40
0.045
309
GRIDFORMAT_END
 95
        4
302
GRIDFORMAT
  1
GRIDFORMAT_BEGIN
 90
        0
 91
        1
 62
     0
 92
       -2
340
14
 93
        0
 40
0.045
309
GRIDFORMAT_END
 95
        8
302
GRIDFORMAT
  1
GRIDFORMAT_BEGIN
 90
        0
 91
        1
 62
     0
 92
       -2
340
14
 93
        0
 40
0.045
309
GRIDFORMAT_END
 95
       16
302
GRIDFORMAT
  1
GRIDFORMAT_BEGIN
 90
        0
 91
        1
 62
     0
 92
       -2
340
14
 93
        0
 40
0.045
309
GRIDFORMAT_END
 95
       32
302
GRIDFORMAT
  1
GRIDFORMAT_BEGIN
 90
        0
 91
        1
 62
     0
 92
       -2
340
14
 93
        0
 40
0.045
309
GRIDFORMAT_END
309
TABLEFORMAT_END
  1
CELLSTYLE_BEGIN
 90
        2
 91
        1
300
_HEADER
309
CELLSTYLE_END
300
CELLSTYLE
  1
TABLEFORMAT_BEGIN
 90
        5
170
     1
 91
        0
 92
        0
 62
   257
 93
        1
300
CONTENTFORMAT
  1
CONTENTFORMAT_BEGIN
 90
        0
 91
        0
 92
        4
 93
        0
300

 40
0.0
140
1.0
 94
        2
 62
     0
340
11
144
4.5
309
CONTENTFORMAT_END
171
     1
301
MARGIN
  1
CELLMARGIN_BEGIN
 40
1.5
 40
1.5
 40
1.5
 40
1.5
 40
1.5
 40
1.5
309
CELLMARGIN_END
 94
        6
 95
        1
302
GRIDFORMAT
  1
GRIDFORMAT_BEGIN
 90
        0
 91
        1
 62
     0
 92
       -2
340
14
 93
        0
 40
0.045
309
GRIDFORMAT_END
 95
        2
302
GRIDFORMAT
  1
GRIDFORMAT_BEGIN
 90
        0
 91
        1
 62
     0
 92
       -2
340
14
 93
        0
 40
0.045
309
GRIDFORMAT_END
 95
        4
302
GRIDFORMAT
  1
GRIDFORMAT_BEGIN
 90
        0
 91
        1
 62
     0
 92
       -2
340
14
 93
        0
 40
0.045
309
GRIDFORMAT_END
 95
        8
302
GRIDFORMAT
  1
GRIDFORMAT_BEGIN
 90
        0
 91
        1
 62
     0
 92
       -2
340
14
 93
        0
 40
0.045
309
GRIDFORMAT_END
 95
       16
302
GRIDFORMAT
  1
GRIDFORMAT_BEGIN
 90
        0
 91
        1
 62
     0
 92
       -2
340
14
 93
        0
 40
0.045
309
GRIDFORMAT_END
 95
       32
302
GRIDFORMAT
  1
GRIDFORMAT_BEGIN
 90
        0
 91
        1
 62
     0
 92
       -2
340
14
 93
        0
 40
0.045
309
GRIDFORMAT_END
309
TABLEFORMAT_END
  1
CELLSTYLE_BEGIN
 90
        3
 91
        2
300
_DATA
309
CELLSTYLE_END
  0
XRECORD
  5
25A
102
{ACAD_REACTORS
330
259
102
}
330
259
100
AcDbXrecord
280
     1
102
RTVSPost2010Prop28
280
     1
102
RTVSPost2010PropOp28
 70
     1
102
RTVSPost2010Prop29
280
     1
102
RTVSPost2010PropOp29
 70
     1
102
RTVSPost2010Prop30
280
     0
102
RTVSPost2010PropOp30
 70
     1
102
RTVSPost2010Prop31
280
     0
102
RTVSPost2010PropOp31
 70
     1
102
RTVSPost2010Prop32
280
     0
102
RTVSPost2010PropOp32
 70
     1
102
RTVSPost2010Prop33
280
     0
102
RTVSPost2010PropOp33
 70
     1
102
RTVSPost2010Prop34
280
     0
102
RTVSPost2010PropOp34
 70
     1
102
RTVSPost2010Prop35
280
     0
102
RTVSPost2010PropOp35
 70
     1
102
RTVSPost2010Prop36
280
     0
102
RTVSPost2010PropOp36
 70
     1
102
RTVSPost2010Prop37
 90
       50
102
RTVSPost2010PropOp37
 70
     1
102
RTVSPost2010Prop38
140
0.0
102
RTVSPost2010PropOp38
 70
     1
102
RTVSPost2010Prop39
140
1.0
102
RTVSPost2010PropOp39
 70
     1
102
RTVSPost2010Prop40
 90
        0
102
RTVSPost2010PropOp40
 70
     1
102
RTVSPost2010Prop41ColorIndex
 90
       18
102
RTVSPost2010Prop41ColorRGB
 90
        0
102
RTVSPost2010PropOp41
 70
     1
102
RTVSPost2010Prop42
 90
       50
102
RTVSPost2010PropOp42
 70
     1
102
RTVSPost2010Prop43
 90
        3
102
RTVSPost2010PropOp43
 70
     1
102
RTVSPost2010Prop44ColorIndex
 90
        5
102
RTVSPost2010Prop44ColorRGB
 90
      255
102
RTVSPost2010PropOp44
 70
     1
102
RTVSPost2010Prop45
280
     0
102
RTVSPost2010PropOp45
 70
     1
102
RTVSPost2010Prop46
 90
       50
102
RTVSPost2010PropOp46
 70
     1
102
RTVSPost2010Prop47
 90
       50
102
RTVSPost2010PropOp47
 70
     1
102
RTVSPost2010Prop48
 90
       50
102
RTVSPost2010PropOp48
 70
     1
102
RTVSPost2010Prop49
280
     0
102
RTVSPost2010PropOp49
 70
     1
102
RTVSPost2010Prop50
 90
       50
102
RTVSPost2010PropOp50
 70
     1
102
RTVSPost2010Prop51ColorIndex
 90
      256
102
RTVSPost2010Prop51ColorRGB
 90
-16777216
102
RTVSPost2010PropOp51
 70
     0
102
RTVSPost2010Prop52
140
1.0
102
RTVSPost2010PropOp52
 70
     0
102
RTVSPost2010Prop53
 90
        2
102
RTVSPost2010PropOp53
 70
     1
102
RTVSPost2010Prop54
  1
strokes_ogs.tif
102
RTVSPost2010PropOp54
 70
     1
102
RTVSPost2010Prop55
280
     0
102
RTVSPost2010PropOp55
 70
     1
102
RTVSPost2010Prop56
140
1.0
102
RTVSPost2010PropOp56
 70
     1
102
RTVSPost2010Prop57
140
1.0
102
RTVSPost2010PropOp57
 70
     1
  0
XRECORD
  5
260
102
{ACAD_REACTORS
330
25F
102
}
330
25F
100
AcDbXrecord
280
     1
102
RTVSPost2010Prop28
280
     0
102
RTVSPost2010PropOp28
 70
     1
102
RTVSPost2010Prop29
280
     1
102
RTVSPost2010PropOp29
 70
     1
102
RTVSPost2010Prop30
280
     1
102
RTVSPost2010PropOp30
 70
     1
102
RTVSPost2010Prop31
280
     0
102
RTVSPost2010PropOp31
 70
     1
102
RTVSPost2010Prop32
280
     0
102
RTVSPost2010PropOp32
 70
     1
102
RTVSPost2010Prop33
280
     0
102
RTVSPost2010PropOp33
 70
     1
102
RTVSPost2010Prop34
280
     0
102
RTVSPost2010PropOp34
 70
     1
102
RTVSPost2010Prop35
280
     0
102
RTVSPost2010PropOp35
 70
     1
102
RTVSPost2010Prop36
280
     0
102
RTVSPost2010PropOp36
 70
     1
102
RTVSPost2010Prop37
 90
       50
102
RTVSPost2010PropOp37
 70
     1
102
RTVSPost2010Prop38
140
0.0
102
RTVSPost2010PropOp38
 70
     1
102
RTVSPost2010Prop39
140
1.0
102
RTVSPost2010PropOp39
 70
     1
102
RTVSPost2010Prop40
 90
        0
102
RTVSPost2010PropOp40
 70
     1
102
RTVSPost2010Prop41ColorIndex
 90
       18
102
RTVSPost2010Prop41ColorRGB
 90
        0
102
RTVSPost2010PropOp41
 70
     1
102
RTVSPost2010Prop42
 90
       50
102
RTVSPost2010PropOp42
 70
     1
102
RTVSPost2010Prop43
 90
        3
102
RTVSPost2010PropOp43
 70
     1
102
RTVSPost2010Prop44ColorIndex
 90
        5
102
RTVSPost2010Prop44ColorRGB
 90
      255
102
RTVSPost2010PropOp44
 70
     1
102
RTVSPost2010Prop45
280
     0
102
RTVSPost2010PropOp45
 70
     1
102
RTVSPost2010Prop46
 90
       50
102
RTVSPost2010PropOp46
 70
     1
102
RTVSPost2010Prop47
 90
       50
102
RTVSPost2010PropOp47
 70
     1
102
RTVSPost2010Prop48
 90
       50
102
RTVSPost2010PropOp48
 70
     1
102
RTVSPost2010Prop49
280
     0
102
RTVSPost2010PropOp49
 70
     1
102
RTVSPost2010Prop50
 90
       50
102
RTVSPost2010PropOp50
 70
     1
102
RTVSPost2010Prop51ColorIndex
 90
      256
102
RTVSPost2010Prop51ColorRGB
 90
-16777216
102
RTVSPost2010PropOp51
 70
     0
102
RTVSPost2010Prop52
140
1.0
102
RTVSPost2010PropOp52
 70
     0
102
RTVSPost2010Prop53
 90
        2
102
RTVSPost2010PropOp53
 70
     1
102
RTVSPost2010Prop54
  1
strokes_ogs.tif
102
RTVSPost2010PropOp54
 70
     1
102
RTVSPost2010Prop55
280
     0
102
RTVSPost2010PropOp55
 70
     1
102
RTVSPost2010Prop56
140
1.0
102
RTVSPost2010PropOp56
 70
     1
102
RTVSPost2010Prop57
140
1.0
102
RTVSPost2010PropOp57
 70
     1
  0
XRECORD
  5
268
102
{ACAD_REACTORS
330
267
102
}
330
267
100
AcDbXrecord
280
     1
102
RTVSPost2010Prop28
280
     0
102
RTVSPost2010PropOp28
 70
     1
102
RTVSPost2010Prop29
280
     1
102
RTVSPost2010PropOp29
 70
     1
102
RTVSPost2010Prop30
280
     1
102
RTVSPost2010PropOp30
 70
     1
102
RTVSPost2010Prop31
280
     0
102
RTVSPost2010PropOp31
 70
     1
102
RTVSPost2010Prop32
280
     0
102
RTVSPost2010PropOp32
 70
     1
102
RTVSPost2010Prop33
280
     0
102
RTVSPost2010PropOp33
 70
     1
102
RTVSPost2010Prop34
280
     0
102
RTVSPost2010PropOp34
 70
     1
102
RTVSPost2010Prop35
280
     0
102
RTVSPost2010PropOp35
 70
     1
102
RTVSPost2010Prop36
280
     0
102
RTVSPost2010PropOp36
 70
     1
102
RTVSPost2010Prop37
 90
       50
102
RTVSPost2010PropOp37
 70
     1
102
RTVSPost2010Prop38
140
0.0
102
RTVSPost2010PropOp38
 70
     1
102
RTVSPost2010Prop39
140
1.0
102
RTVSPost2010PropOp39
 70
     1
102
RTVSPost2010Prop40
 90
        0
102
RTVSPost2010PropOp40
 70
     1
102
RTVSPost2010Prop41ColorIndex
 90
       18
102
RTVSPost2010Prop41ColorRGB
 90
        0
102
RTVSPost2010PropOp41
 70
     1
102
RTVSPost2010Prop42
 90
       50
102
RTVSPost2010PropOp42
 70
     1
102
RTVSPost2010Prop43
 90
        3
102
RTVSPost2010PropOp43
 70
     1
102
RTVSPost2010Prop44ColorIndex
 90
        5
102
RTVSPost2010Prop44ColorRGB
 90
      255
102
RTVSPost2010PropOp44
 70
     1
102
RTVSPost2010Prop45
280
     0
102
RTVSPost2010PropOp45
 70
     1
102
RTVSPost2010Prop46
 90
       50
102
RTVSPost2010PropOp46
 70
     1
102
RTVSPost2010Prop47
 90
       50
102
RTVSPost2010PropOp47
 70
     1
102
RTVSPost2010Prop48
 90
       50
102
RTVSPost2010PropOp48
 70
     1
102
RTVSPost2010Prop49
280
     0
102
RTVSPost2010PropOp49
 70
     1
102
RTVSPost2010Prop50
 90
       50
102
RTVSPost2010PropOp50
 70
     1
102
RTVSPost2010Prop51ColorIndex
 90
      256
102
RTVSPost2010Prop51ColorRGB
 90
-16777216
102
RTVSPost2010PropOp51
 70
     0
102
RTVSPost2010Prop52
140
1.0
102
RTVSPost2010PropOp52
 70
     0
102
RTVSPost2010Prop53
 90
        2
102
RTVSPost2010PropOp53
 70
     1
102
RTVSPost2010Prop54
  1
strokes_ogs.tif
102
RTVSPost2010PropOp54
 70
     1
102
RTVSPost2010Prop55
280
     0
102
RTVSPost2010PropOp55
 70
     1
102
RTVSPost2010Prop56
140
1.0
102
RTVSPost2010PropOp56
 70
     1
102
RTVSPost2010Prop57
140
1.0
102
RTVSPost2010PropOp57
 70
     1
  0
XRECORD
  5
270
102
{ACAD_REACTORS
330
26F
102
}
330
26F
100
AcDbXrecord
280
     1
102
RTVSPost2010Prop28
280
     0
102
RTVSPost2010PropOp28
 70
     1
102
RTVSPost2010Prop29
280
     1
102
RTVSPost2010PropOp29
 70
     1
102
RTVSPost2010Prop30
280
     1
102
RTVSPost2010PropOp30
 70
     1
102
RTVSPost2010Prop31
280
     0
102
RTVSPost2010PropOp31
 70
     1
102
RTVSPost2010Prop32
280
     0
102
RTVSPost2010PropOp32
 70
     1
102
RTVSPost2010Prop33
280
     0
102
RTVSPost2010PropOp33
 70
     1
102
RTVSPost2010Prop34
280
     0
102
RTVSPost2010PropOp34
 70
     1
102
RTVSPost2010Prop35
280
     0
102
RTVSPost2010PropOp35
 70
     1
102
RTVSPost2010Prop36
280
     0
102
RTVSPost2010PropOp36
 70
     1
102
RTVSPost2010Prop37
 90
       50
102
RTVSPost2010PropOp37
 70
     1
102
RTVSPost2010Prop38
140
0.0
102
RTVSPost2010PropOp38
 70
     1
102
RTVSPost2010Prop39
140
1.0
102
RTVSPost2010PropOp39
 70
     1
102
RTVSPost2010Prop40
 90
        0
102
RTVSPost2010PropOp40
 70
     1
102
RTVSPost2010Prop41ColorIndex
 90
       18
102
RTVSPost2010Prop41ColorRGB
 90
        0
102
RTVSPost2010PropOp41
 70
     1
102
RTVSPost2010Prop42
 90
       50
102
RTVSPost2010PropOp42
 70
     1
102
RTVSPost2010Prop43
 90
        3
102
RTVSPost2010PropOp43
 70
     1
102
RTVSPost2010Prop44ColorIndex
 90
        5
102
RTVSPost2010Prop44ColorRGB
 90
      255
102
RTVSPost2010PropOp44
 70
     1
102
RTVSPost2010Prop45
280
     0
102
RTVSPost2010PropOp45
 70
     1
102
RTVSPost2010Prop46
 90
       50
102
RTVSPost2010PropOp46
 70
     1
102
RTVSPost2010Prop47
 90
       50
102
RTVSPost2010PropOp47
 70
     1
102
RTVSPost2010Prop48
 90
       50
102
RTVSPost2010PropOp48
 70
     1
102
RTVSPost2010Prop49
280
     0
102
RTVSPost2010PropOp49
 70
     1
102
RTVSPost2010Prop50
 90
       50
102
RTVSPost2010PropOp50
 70
     1
102
RTVSPost2010Prop51ColorIndex
 90
      256
102
RTVSPost2010Prop51ColorRGB
 90
-16777216
102
RTVSPost2010PropOp51
 70
     0
102
RTVSPost2010Prop52
140
1.0
102
RTVSPost2010PropOp52
 70
     0
102
RTVSPost2010Prop53
 90
        2
102
RTVSPost2010PropOp53
 70
     1
102
RTVSPost2010Prop54
  1
strokes_ogs.tif
102
RTVSPost2010PropOp54
 70
     1
102
RTVSPost2010Prop55
280
     0
102
RTVSPost2010PropOp55
 70
     1
102
RTVSPost2010Prop56
140
1.0
102
RTVSPost2010PropOp56
 70
     1
102
RTVSPost2010Prop57
140
1.0
102
RTVSPost2010PropOp57
 70
     1
  0
XRECORD
  5
264
102
{ACAD_REACTORS
330
263
102
}
330
263
100
AcDbXrecord
280
     1
102
RTVSPost2010Prop28
280
     0
102
RTVSPost2010PropOp28
 70
     1
102
RTVSPost2010Prop29
280
     1
102
RTVSPost2010PropOp29
 70
     1
102
RTVSPost2010Prop30
280
     1
102
RTVSPost2010PropOp30
 70
     1
102
RTVSPost2010Prop31
280
     0
102
RTVSPost2010PropOp31
 70
     1
102
RTVSPost2010Prop32
280
     0
102
RTVSPost2010PropOp32
 70
     1
102
RTVSPost2010Prop33
280
     0
102
RTVSPost2010PropOp33
 70
     1
102
RTVSPost2010Prop34
280
     0
102
RTVSPost2010PropOp34
 70
     1
102
RTVSPost2010Prop35
280
     0
102
RTVSPost2010PropOp35
 70
     1
102
RTVSPost2010Prop36
280
     0
102
RTVSPost2010PropOp36
 70
     1
102
RTVSPost2010Prop37
 90
       50
102
RTVSPost2010PropOp37
 70
     1
102
RTVSPost2010Prop38
140
0.0
102
RTVSPost2010PropOp38
 70
     1
102
RTVSPost2010Prop39
140
1.0
102
RTVSPost2010PropOp39
 70
     1
102
RTVSPost2010Prop40
 90
        0
102
RTVSPost2010PropOp40
 70
     1
102
RTVSPost2010Prop41ColorIndex
 90
       18
102
RTVSPost2010Prop41ColorRGB
 90
        0
102
RTVSPost2010PropOp41
 70
     1
102
RTVSPost2010Prop42
 90
       50
102
RTVSPost2010PropOp42
 70
     1
102
RTVSPost2010Prop43
 90
        3
102
RTVSPost2010PropOp43
 70
     1
102
RTVSPost2010Prop44ColorIndex
 90
        5
102
RTVSPost2010Prop44ColorRGB
 90
      255
102
RTVSPost2010PropOp44
 70
     1
102
RTVSPost2010Prop45
280
     0
102
RTVSPost2010PropOp45
 70
     1
102
RTVSPost2010Prop46
 90
       50
102
RTVSPost2010PropOp46
 70
     1
102
RTVSPost2010Prop47
 90
       50
102
RTVSPost2010PropOp47
 70
     1
102
RTVSPost2010Prop48
 90
       50
102
RTVSPost2010PropOp48
 70
     1
102
RTVSPost2010Prop49
280
     0
102
RTVSPost2010PropOp49
 70
     1
102
RTVSPost2010Prop50
 90
       50
102
RTVSPost2010PropOp50
 70
     1
102
RTVSPost2010Prop51ColorIndex
 90
      256
102
RTVSPost2010Prop51ColorRGB
 90
-16777216
102
RTVSPost2010PropOp51
 70
     0
102
RTVSPost2010Prop52
140
1.0
102
RTVSPost2010PropOp52
 70
     0
102
RTVSPost2010Prop53
 90
        2
102
RTVSPost2010PropOp53
 70
     1
102
RTVSPost2010Prop54
  1
strokes_ogs.tif
102
RTVSPost2010PropOp54
 70
     1
102
RTVSPost2010Prop55
280
     0
102
RTVSPost2010PropOp55
 70
     1
102
RTVSPost2010Prop56
140
1.0
102
RTVSPost2010PropOp56
 70
     1
102
RTVSPost2010Prop57
140
1.0
102
RTVSPost2010PropOp57
 70
     1
  0
XRECORD
  5
266
102
{ACAD_REACTORS
330
265
102
}
330
265
100
AcDbXrecord
280
     1
102
RTVSPost2010Prop28
280
     0
102
RTVSPost2010PropOp28
 70
     1
102
RTVSPost2010Prop29
280
     1
102
RTVSPost2010PropOp29
 70
     1
102
RTVSPost2010Prop30
280
     1
102
RTVSPost2010PropOp30
 70
     1
102
RTVSPost2010Prop31
280
     0
102
RTVSPost2010PropOp31
 70
     1
102
RTVSPost2010Prop32
280
     0
102
RTVSPost2010PropOp32
 70
     1
102
RTVSPost2010Prop33
280
     0
102
RTVSPost2010PropOp33
 70
     1
102
RTVSPost2010Prop34
280
     0
102
RTVSPost2010PropOp34
 70
     1
102
RTVSPost2010Prop35
280
     0
102
RTVSPost2010PropOp35
 70
     1
102
RTVSPost2010Prop36
280
     0
102
RTVSPost2010PropOp36
 70
     1
102
RTVSPost2010Prop37
 90
       50
102
RTVSPost2010PropOp37
 70
     1
102
RTVSPost2010Prop38
140
0.0
102
RTVSPost2010PropOp38
 70
     1
102
RTVSPost2010Prop39
140
1.0
102
RTVSPost2010PropOp39
 70
     1
102
RTVSPost2010Prop40
 90
        0
102
RTVSPost2010PropOp40
 70
     1
102
RTVSPost2010Prop41ColorIndex
 90
       18
102
RTVSPost2010Prop41ColorRGB
 90
        0
102
RTVSPost2010PropOp41
 70
     1
102
RTVSPost2010Prop42
 90
       50
102
RTVSPost2010PropOp42
 70
     1
102
RTVSPost2010Prop43
 90
        3
102
RTVSPost2010PropOp43
 70
     1
102
RTVSPost2010Prop44ColorIndex
 90
        5
102
RTVSPost2010Prop44ColorRGB
 90
      255
102
RTVSPost2010PropOp44
 70
     1
102
RTVSPost2010Prop45
280
     0
102
RTVSPost2010PropOp45
 70
     1
102
RTVSPost2010Prop46
 90
       50
102
RTVSPost2010PropOp46
 70
     1
102
RTVSPost2010Prop47
 90
       50
102
RTVSPost2010PropOp47
 70
     1
102
RTVSPost2010Prop48
 90
       50
102
RTVSPost2010PropOp48
 70
     1
102
RTVSPost2010Prop49
280
     0
102
RTVSPost2010PropOp49
 70
     1
102
RTVSPost2010Prop50
 90
       50
102
RTVSPost2010PropOp50
 70
     1
102
RTVSPost2010Prop51ColorIndex
 90
      256
102
RTVSPost2010Prop51ColorRGB
 90
-16777216
102
RTVSPost2010PropOp51
 70
     0
102
RTVSPost2010Prop52
140
1.0
102
RTVSPost2010PropOp52
 70
     0
102
RTVSPost2010Prop53
 90
        2
102
RTVSPost2010PropOp53
 70
     1
102
RTVSPost2010Prop54
  1
strokes_ogs.tif
102
RTVSPost2010PropOp54
 70
     1
102
RTVSPost2010Prop55
280
     0
102
RTVSPost2010PropOp55
 70
     1
102
RTVSPost2010Prop56
140
1.0
102
RTVSPost2010PropOp56
 70
     1
102
RTVSPost2010Prop57
140
1.0
102
RTVSPost2010PropOp57
 70
     1
  0
XRECORD
  5
276
102
{ACAD_REACTORS
330
275
102
}
330
275
100
AcDbXrecord
280
     1
102
RTVSPost2010Prop28
280
     0
102
RTVSPost2010PropOp28
 70
     0
102
RTVSPost2010Prop29
280
     1
102
RTVSPost2010PropOp29
 70
     0
102
RTVSPost2010Prop30
280
     1
102
RTVSPost2010PropOp30
 70
     0
102
RTVSPost2010Prop31
280
     0
102
RTVSPost2010PropOp31
 70
     0
102
RTVSPost2010Prop32
280
     0
102
RTVSPost2010PropOp32
 70
     0
102
RTVSPost2010Prop33
280
     0
102
RTVSPost2010PropOp33
 70
     0
102
RTVSPost2010Prop34
280
     0
102
RTVSPost2010PropOp34
 70
     0
102
RTVSPost2010Prop35
280
     0
102
RTVSPost2010PropOp35
 70
     0
102
RTVSPost2010Prop36
280
     0
102
RTVSPost2010PropOp36
 70
     0
102
RTVSPost2010Prop37
 90
       50
102
RTVSPost2010PropOp37
 70
     0
102
RTVSPost2010Prop38
140
0.0
102
RTVSPost2010PropOp38
 70
     0
102
RTVSPost2010Prop39
140
1.0
102
RTVSPost2010PropOp39
 70
     0
102
RTVSPost2010Prop40
 90
        0
102
RTVSPost2010PropOp40
 70
     0
102
RTVSPost2010Prop41ColorIndex
 90
       18
102
RTVSPost2010Prop41ColorRGB
 90
        0
102
RTVSPost2010PropOp41
 70
     0
102
RTVSPost2010Prop42
 90
       50
102
RTVSPost2010PropOp42
 70
     0
102
RTVSPost2010Prop43
 90
        3
102
RTVSPost2010PropOp43
 70
     0
102
RTVSPost2010Prop44ColorIndex
 90
        5
102
RTVSPost2010Prop44ColorRGB
 90
      255
102
RTVSPost2010PropOp44
 70
     0
102
RTVSPost2010Prop45
280
     0
102
RTVSPost2010PropOp45
 70
     0
102
RTVSPost2010Prop46
 90
       50
102
RTVSPost2010PropOp46
 70
     0
102
RTVSPost2010Prop47
 90
       50
102
RTVSPost2010PropOp47
 70
     0
102
RTVSPost2010Prop48
 90
       50
102
RTVSPost2010PropOp48
 70
     0
102
RTVSPost2010Prop49
280
     0
102
RTVSPost2010PropOp49
 70
     0
102
RTVSPost2010Prop50
 90
       50
102
RTVSPost2010PropOp50
 70
     0
102
RTVSPost2010Prop51ColorIndex
 90
      256
102
RTVSPost2010Prop51ColorRGB
 90
-16777216
102
RTVSPost2010PropOp51
 70
     0
102
RTVSPost2010Prop52
140
1.0
102
RTVSPost2010PropOp52
 70
     0
102
RTVSPost2010Prop53
 90
        2
102
RTVSPost2010PropOp53
 70
     0
102
RTVSPost2010Prop54
  1
strokes_ogs.tif
102
RTVSPost2010PropOp54
 70
     0
102
RTVSPost2010Prop55
280
     0
102
RTVSPost2010PropOp55
 70
     0
102
RTVSPost2010Prop56
140
1.0
102
RTVSPost2010PropOp56
 70
     0
102
RTVSPost2010Prop57
140
1.0
102
RTVSPost2010PropOp57
 70
     0
  0
XRECORD
  5
26E
102
{ACAD_REACTORS
330
26D
102
}
330
26D
100
AcDbXrecord
280
     1
102
RTVSPost2010Prop28
280
     0
102
RTVSPost2010PropOp28
 70
     1
102
RTVSPost2010Prop29
280
     1
102
RTVSPost2010PropOp29
 70
     1
102
RTVSPost2010Prop30
280
     1
102
RTVSPost2010PropOp30
 70
     1
102
RTVSPost2010Prop31
280
     0
102
RTVSPost2010PropOp31
 70
     1
102
RTVSPost2010Prop32
280
     0
102
RTVSPost2010PropOp32
 70
     1
102
RTVSPost2010Prop33
280
     0
102
RTVSPost2010PropOp33
 70
     1
102
RTVSPost2010Prop34
280
     0
102
RTVSPost2010PropOp34
 70
     1
102
RTVSPost2010Prop35
280
     0
102
RTVSPost2010PropOp35
 70
     1
102
RTVSPost2010Prop36
280
     0
102
RTVSPost2010PropOp36
 70
     1
102
RTVSPost2010Prop37
 90
       50
102
RTVSPost2010PropOp37
 70
     1
102
RTVSPost2010Prop38
140
0.0
102
RTVSPost2010PropOp38
 70
     1
102
RTVSPost2010Prop39
140
1.0
102
RTVSPost2010PropOp39
 70
     1
102
RTVSPost2010Prop40
 90
        0
102
RTVSPost2010PropOp40
 70
     1
102
RTVSPost2010Prop41ColorIndex
 90
       18
102
RTVSPost2010Prop41ColorRGB
 90
        0
102
RTVSPost2010PropOp41
 70
     1
102
RTVSPost2010Prop42
 90
       50
102
RTVSPost2010PropOp42
 70
     1
102
RTVSPost2010Prop43
 90
        3
102
RTVSPost2010PropOp43
 70
     1
102
RTVSPost2010Prop44ColorIndex
 90
        5
102
RTVSPost2010Prop44ColorRGB
 90
      255
102
RTVSPost2010PropOp44
 70
     1
102
RTVSPost2010Prop45
280
     0
102
RTVSPost2010PropOp45
 70
     1
102
RTVSPost2010Prop46
 90
       50
102
RTVSPost2010PropOp46
 70
     1
102
RTVSPost2010Prop47
 90
       50
102
RTVSPost2010PropOp47
 70
     1
102
RTVSPost2010Prop48
 90
       50
102
RTVSPost2010PropOp48
 70
     1
102
RTVSPost2010Prop49
280
     0
102
RTVSPost2010PropOp49
 70
     1
102
RTVSPost2010Prop50
 90
       50
102
RTVSPost2010PropOp50
 70
     1
102
RTVSPost2010Prop51ColorIndex
 90
      256
102
RTVSPost2010Prop51ColorRGB
 90
-16777216
102
RTVSPost2010PropOp51
 70
     0
102
RTVSPost2010Prop52
140
1.0
102
RTVSPost2010PropOp52
 70
     0
102
RTVSPost2010Prop53
 90
        2
102
RTVSPost2010PropOp53
 70
     1
102
RTVSPost2010Prop54
  1
strokes_ogs.tif
102
RTVSPost2010PropOp54
 70
     1
102
RTVSPost2010Prop55
280
     0
102
RTVSPost2010PropOp55
 70
     1
102
RTVSPost2010Prop56
140
1.0
102
RTVSPost2010PropOp56
 70
     1
102
RTVSPost2010Prop57
140
1.0
102
RTVSPost2010PropOp57
 70
     1
  0
XRECORD
  5
252
102
{ACAD_REACTORS
330
251
102
}
330
251
100
AcDbXrecord
280
     1
102
RTVSPost2010Prop28
280
     0
102
RTVSPost2010PropOp28
 70
     1
102
RTVSPost2010Prop29
280
     1
102
RTVSPost2010PropOp29
 70
     1
102
RTVSPost2010Prop30
280
     1
102
RTVSPost2010PropOp30
 70
     1
102
RTVSPost2010Prop31
280
     0
102
RTVSPost2010PropOp31
 70
     1
102
RTVSPost2010Prop32
280
     0
102
RTVSPost2010PropOp32
 70
     1
102
RTVSPost2010Prop33
280
     0
102
RTVSPost2010PropOp33
 70
     1
102
RTVSPost2010Prop34
280
     0
102
RTVSPost2010PropOp34
 70
     1
102
RTVSPost2010Prop35
280
     0
102
RTVSPost2010PropOp35
 70
     1
102
RTVSPost2010Prop36
280
     0
102
RTVSPost2010PropOp36
 70
     1
102
RTVSPost2010Prop37
 90
       50
102
RTVSPost2010PropOp37
 70
     1
102
RTVSPost2010Prop38
140
0.0
102
RTVSPost2010PropOp38
 70
     1
102
RTVSPost2010Prop39
140
1.0
102
RTVSPost2010PropOp39
 70
     1
102
RTVSPost2010Prop40
 90
        0
102
RTVSPost2010PropOp40
 70
     1
102
RTVSPost2010Prop41ColorIndex
 90
       18
102
RTVSPost2010Prop41ColorRGB
 90
        0
102
RTVSPost2010PropOp41
 70
     1
102
RTVSPost2010Prop42
 90
       50
102
RTVSPost2010PropOp42
 70
     1
102
RTVSPost2010Prop43
 90
        3
102
RTVSPost2010PropOp43
 70
     1
102
RTVSPost2010Prop44ColorIndex
 90
        5
102
RTVSPost2010Prop44ColorRGB
 90
      255
102
RTVSPost2010PropOp44
 70
     1
102
RTVSPost2010Prop45
280
     0
102
RTVSPost2010PropOp45
 70
     1
102
RTVSPost2010Prop46
 90
       50
102
RTVSPost2010PropOp46
 70
     1
102
RTVSPost2010Prop47
 90
       50
102
RTVSPost2010PropOp47
 70
     1
102
RTVSPost2010Prop48
 90
       50
102
RTVSPost2010PropOp48
 70
     1
102
RTVSPost2010Prop49
280
     0
102
RTVSPost2010PropOp49
 70
     1
102
RTVSPost2010Prop50
 90
       50
102
RTVSPost2010PropOp50
 70
     1
102
RTVSPost2010Prop51ColorIndex
 90
      256
102
RTVSPost2010Prop51ColorRGB
 90
-16777216
102
RTVSPost2010PropOp51
 70
     0
102
RTVSPost2010Prop52
140
1.0
102
RTVSPost2010PropOp52
 70
     0
102
RTVSPost2010Prop53
 90
        2
102
RTVSPost2010PropOp53
 70
     1
102
RTVSPost2010Prop54
  1
strokes_ogs.tif
102
RTVSPost2010PropOp54
 70
     1
102
RTVSPost2010Prop55
280
     0
102
RTVSPost2010PropOp55
 70
     1
102
RTVSPost2010Prop56
140
1.0
102
RTVSPost2010PropOp56
 70
     1
102
RTVSPost2010Prop57
140
1.0
102
RTVSPost2010PropOp57
 70
     1
  0
XRECORD
  5
254
102
{ACAD_REACTORS
330
253
102
}
330
253
100
AcDbXrecord
280
     1
102
RTVSPost2010Prop28
280
     0
102
RTVSPost2010PropOp28
 70
     1
102
RTVSPost2010Prop29
280
     1
102
RTVSPost2010PropOp29
 70
     1
102
RTVSPost2010Prop30
280
     1
102
RTVSPost2010PropOp30
 70
     1
102
RTVSPost2010Prop31
280
     0
102
RTVSPost2010PropOp31
 70
     1
102
RTVSPost2010Prop32
280
     0
102
RTVSPost2010PropOp32
 70
     1
102
RTVSPost2010Prop33
280
     0
102
RTVSPost2010PropOp33
 70
     1
102
RTVSPost2010Prop34
280
     0
102
RTVSPost2010PropOp34
 70
     1
102
RTVSPost2010Prop35
280
     0
102
RTVSPost2010PropOp35
 70
     1
102
RTVSPost2010Prop36
280
     0
102
RTVSPost2010PropOp36
 70
     1
102
RTVSPost2010Prop37
 90
       50
102
RTVSPost2010PropOp37
 70
     1
102
RTVSPost2010Prop38
140
0.0
102
RTVSPost2010PropOp38
 70
     1
102
RTVSPost2010Prop39
140
1.0
102
RTVSPost2010PropOp39
 70
     1
102
RTVSPost2010Prop40
 90
        0
102
RTVSPost2010PropOp40
 70
     1
102
RTVSPost2010Prop41ColorIndex
 90
       18
102
RTVSPost2010Prop41ColorRGB
 90
        0
102
RTVSPost2010PropOp41
 70
     1
102
RTVSPost2010Prop42
 90
       50
102
RTVSPost2010PropOp42
 70
     1
102
RTVSPost2010Prop43
 90
        3
102
RTVSPost2010PropOp43
 70
     1
102
RTVSPost2010Prop44ColorIndex
 90
        5
102
RTVSPost2010Prop44ColorRGB
 90
      255
102
RTVSPost2010PropOp44
 70
     1
102
RTVSPost2010Prop45
280
     0
102
RTVSPost2010PropOp45
 70
     1
102
RTVSPost2010Prop46
 90
       50
102
RTVSPost2010PropOp46
 70
     1
102
RTVSPost2010Prop47
 90
       50
102
RTVSPost2010PropOp47
 70
     1
102
RTVSPost2010Prop48
 90
       50
102
RTVSPost2010PropOp48
 70
     1
102
RTVSPost2010Prop49
280
     0
102
RTVSPost2010PropOp49
 70
     1
102
RTVSPost2010Prop50
 90
       50
102
RTVSPost2010PropOp50
 70
     1
102
RTVSPost2010Prop51ColorIndex
 90
      256
102
RTVSPost2010Prop51ColorRGB
 90
-16777216
102
RTVSPost2010PropOp51
 70
     0
102
RTVSPost2010Prop52
140
1.0
102
RTVSPost2010PropOp52
 70
     0
102
RTVSPost2010Prop53
 90
        2
102
RTVSPost2010PropOp53
 70
     1
102
RTVSPost2010Prop54
  1
strokes_ogs.tif
102
RTVSPost2010PropOp54
 70
     1
102
RTVSPost2010Prop55
280
     0
102
RTVSPost2010PropOp55
 70
     1
102
RTVSPost2010Prop56
140
1.0
102
RTVSPost2010PropOp56
 70
     1
102
RTVSPost2010Prop57
140
1.0
102
RTVSPost2010PropOp57
 70
     1
  0
XRECORD
  5
256
102
{ACAD_REACTORS
330
255
102
}
330
255
100
AcDbXrecord
280
     1
102
RTVSPost2010Prop28
280
     0
102
RTVSPost2010PropOp28
 70
     1
102
RTVSPost2010Prop29
280
     1
102
RTVSPost2010PropOp29
 70
     1
102
RTVSPost2010Prop30
280
     1
102
RTVSPost2010PropOp30
 70
     1
102
RTVSPost2010Prop31
280
     0
102
RTVSPost2010PropOp31
 70
     1
102
RTVSPost2010Prop32
280
     0
102
RTVSPost2010PropOp32
 70
     1
102
RTVSPost2010Prop33
280
     0
102
RTVSPost2010PropOp33
 70
     1
102
RTVSPost2010Prop34
280
     0
102
RTVSPost2010PropOp34
 70
     1
102
RTVSPost2010Prop35
280
     0
102
RTVSPost2010PropOp35
 70
     1
102
RTVSPost2010Prop36
280
     0
102
RTVSPost2010PropOp36
 70
     1
102
RTVSPost2010Prop37
 90
       50
102
RTVSPost2010PropOp37
 70
     1
102
RTVSPost2010Prop38
140
0.0
102
RTVSPost2010PropOp38
 70
     1
102
RTVSPost2010Prop39
140
1.0
102
RTVSPost2010PropOp39
 70
     1
102
RTVSPost2010Prop40
 90
        0
102
RTVSPost2010PropOp40
 70
     1
102
RTVSPost2010Prop41ColorIndex
 90
       18
102
RTVSPost2010Prop41ColorRGB
 90
        0
102
RTVSPost2010PropOp41
 70
     1
102
RTVSPost2010Prop42
 90
       50
102
RTVSPost2010PropOp42
 70
     1
102
RTVSPost2010Prop43
 90
        3
102
RTVSPost2010PropOp43
 70
     1
102
RTVSPost2010Prop44ColorIndex
 90
        5
102
RTVSPost2010Prop44ColorRGB
 90
      255
102
RTVSPost2010PropOp44
 70
     1
102
RTVSPost2010Prop45
280
     0
102
RTVSPost2010PropOp45
 70
     1
102
RTVSPost2010Prop46
 90
       50
102
RTVSPost2010PropOp46
 70
     1
102
RTVSPost2010Prop47
 90
       50
102
RTVSPost2010PropOp47
 70
     1
102
RTVSPost2010Prop48
 90
       50
102
RTVSPost2010PropOp48
 70
     1
102
RTVSPost2010Prop49
280
     0
102
RTVSPost2010PropOp49
 70
     1
102
RTVSPost2010Prop50
 90
       50
102
RTVSPost2010PropOp50
 70
     1
102
RTVSPost2010Prop51ColorIndex
 90
      256
102
RTVSPost2010Prop51ColorRGB
 90
-16777216
102
RTVSPost2010PropOp51
 70
     0
102
RTVSPost2010Prop52
140
1.0
102
RTVSPost2010PropOp52
 70
     0
102
RTVSPost2010Prop53
 90
        2
102
RTVSPost2010PropOp53
 70
     1
102
RTVSPost2010Prop54
  1
strokes_ogs.tif
102
RTVSPost2010PropOp54
 70
     1
102
RTVSPost2010Prop55
280
     0
102
RTVSPost2010PropOp55
 70
     1
102
RTVSPost2010Prop56
140
1.0
102
RTVSPost2010PropOp56
 70
     1
102
RTVSPost2010Prop57
140
1.0
102
RTVSPost2010PropOp57
 70
     1
  0
XRECORD
  5
258
102
{ACAD_REACTORS
330
257
102
}
330
257
100
AcDbXrecord
280
     1
102
RTVSPost2010Prop28
280
     0
102
RTVSPost2010PropOp28
 70
     1
102
RTVSPost2010Prop29
280
     1
102
RTVSPost2010PropOp29
 70
     1
102
RTVSPost2010Prop30
280
     1
102
RTVSPost2010PropOp30
 70
     1
102
RTVSPost2010Prop31
280
     0
102
RTVSPost2010PropOp31
 70
     1
102
RTVSPost2010Prop32
280
     0
102
RTVSPost2010PropOp32
 70
     1
102
RTVSPost2010Prop33
280
     0
102
RTVSPost2010PropOp33
 70
     1
102
RTVSPost2010Prop34
280
     0
102
RTVSPost2010PropOp34
 70
     1
102
RTVSPost2010Prop35
280
     0
102
RTVSPost2010PropOp35
 70
     1
102
RTVSPost2010Prop36
280
     0
102
RTVSPost2010PropOp36
 70
     1
102
RTVSPost2010Prop37
 90
       50
102
RTVSPost2010PropOp37
 70
     1
102
RTVSPost2010Prop38
140
0.0
102
RTVSPost2010PropOp38
 70
     1
102
RTVSPost2010Prop39
140
1.0
102
RTVSPost2010PropOp39
 70
     1
102
RTVSPost2010Prop40
 90
        0
102
RTVSPost2010PropOp40
 70
     1
102
RTVSPost2010Prop41ColorIndex
 90
       18
102
RTVSPost2010Prop41ColorRGB
 90
        0
102
RTVSPost2010PropOp41
 70
     1
102
RTVSPost2010Prop42
 90
       50
102
RTVSPost2010PropOp42
 70
     1
102
RTVSPost2010Prop43
 90
        3
102
RTVSPost2010PropOp43
 70
     1
102
RTVSPost2010Prop44ColorIndex
 90
        5
102
RTVSPost2010Prop44ColorRGB
 90
      255
102
RTVSPost2010PropOp44
 70
     1
102
RTVSPost2010Prop45
280
     0
102
RTVSPost2010PropOp45
 70
     1
102
RTVSPost2010Prop46
 90
       50
102
RTVSPost2010PropOp46
 70
     1
102
RTVSPost2010Prop47
 90
       50
102
RTVSPost2010PropOp47
 70
     1
102
RTVSPost2010Prop48
 90
       50
102
RTVSPost2010PropOp48
 70
     1
102
RTVSPost2010Prop49
280
     0
102
RTVSPost2010PropOp49
 70
     1
102
RTVSPost2010Prop50
 90
       50
102
RTVSPost2010PropOp50
 70
     1
102
RTVSPost2010Prop51ColorIndex
 90
      256
102
RTVSPost2010Prop51ColorRGB
 90
-16777216
102
RTVSPost2010PropOp51
 70
     0
102
RTVSPost2010Prop52
140
1.0
102
RTVSPost2010PropOp52
 70
     0
102
RTVSPost2010Prop53
 90
        2
102
RTVSPost2010PropOp53
 70
     1
102
RTVSPost2010Prop54
  1
strokes_ogs.tif
102
RTVSPost2010PropOp54
 70
     1
102
RTVSPost2010Prop55
280
     0
102
RTVSPost2010PropOp55
 70
     1
102
RTVSPost2010Prop56
140
1.0
102
RTVSPost2010PropOp56
 70
     1
102
RTVSPost2010Prop57
140
1.0
102
RTVSPost2010PropOp57
 70
     1
  0
XRECORD
  5
25E
102
{ACAD_REACTORS
330
25D
102
}
330
25D
100
AcDbXrecord
280
     1
102
RTVSPost2010Prop28
280
     0
102
RTVSPost2010PropOp28
 70
     1
102
RTVSPost2010Prop29
280
     1
102
RTVSPost2010PropOp29
 70
     1
102
RTVSPost2010Prop30
280
     1
102
RTVSPost2010PropOp30
 70
     1
102
RTVSPost2010Prop31
280
     0
102
RTVSPost2010PropOp31
 70
     1
102
RTVSPost2010Prop32
280
     0
102
RTVSPost2010PropOp32
 70
     1
102
RTVSPost2010Prop33
280
     0
102
RTVSPost2010PropOp33
 70
     1
102
RTVSPost2010Prop34
280
     0
102
RTVSPost2010PropOp34
 70
     1
102
RTVSPost2010Prop35
280
     0
102
RTVSPost2010PropOp35
 70
     1
102
RTVSPost2010Prop36
280
     0
102
RTVSPost2010PropOp36
 70
     1
102
RTVSPost2010Prop37
 90
       50
102
RTVSPost2010PropOp37
 70
     1
102
RTVSPost2010Prop38
140
0.0
102
RTVSPost2010PropOp38
 70
     1
102
RTVSPost2010Prop39
140
1.0
102
RTVSPost2010PropOp39
 70
     1
102
RTVSPost2010Prop40
 90
        0
102
RTVSPost2010PropOp40
 70
     1
102
RTVSPost2010Prop41ColorIndex
 90
       18
102
RTVSPost2010Prop41ColorRGB
 90
        0
102
RTVSPost2010PropOp41
 70
     1
102
RTVSPost2010Prop42
 90
       50
102
RTVSPost2010PropOp42
 70
     1
102
RTVSPost2010Prop43
 90
        3
102
RTVSPost2010PropOp43
 70
     1
102
RTVSPost2010Prop44ColorIndex
 90
        5
102
RTVSPost2010Prop44ColorRGB
 90
      255
102
RTVSPost2010PropOp44
 70
     1
102
RTVSPost2010Prop45
280
     0
102
RTVSPost2010PropOp45
 70
     1
102
RTVSPost2010Prop46
 90
       50
102
RTVSPost2010PropOp46
 70
     1
102
RTVSPost2010Prop47
 90
       50
102
RTVSPost2010PropOp47
 70
     1
102
RTVSPost2010Prop48
 90
       50
102
RTVSPost2010PropOp48
 70
     1
102
RTVSPost2010Prop49
280
     0
102
RTVSPost2010PropOp49
 70
     1
102
RTVSPost2010Prop50
 90
       50
102
RTVSPost2010PropOp50
 70
     1
102
RTVSPost2010Prop51ColorIndex
 90
      256
102
RTVSPost2010Prop51ColorRGB
 90
-16777216
102
RTVSPost2010PropOp51
 70
     0
102
RTVSPost2010Prop52
140
1.0
102
RTVSPost2010PropOp52
 70
     0
102
RTVSPost2010Prop53
 90
        2
102
RTVSPost2010PropOp53
 70
     1
102
RTVSPost2010Prop54
  1
strokes_ogs.tif
102
RTVSPost2010PropOp54
 70
     1
102
RTVSPost2010Prop55
280
     0
102
RTVSPost2010PropOp55
 70
     1
102
RTVSPost2010Prop56
140
1.0
102
RTVSPost2010PropOp56
 70
     1
102
RTVSPost2010Prop57
140
1.0
102
RTVSPost2010PropOp57
 70
     1
  0
XRECORD
  5
272
102
{ACAD_REACTORS
330
271
102
}
330
271
100
AcDbXrecord
280
     1
102
RTVSPost2010Prop28
280
     0
102
RTVSPost2010PropOp28
 70
     0
102
RTVSPost2010Prop29
280
     1
102
RTVSPost2010PropOp29
 70
     0
102
RTVSPost2010Prop30
280
     1
102
RTVSPost2010PropOp30
 70
     0
102
RTVSPost2010Prop31
280
     0
102
RTVSPost2010PropOp31
 70
     0
102
RTVSPost2010Prop32
280
     0
102
RTVSPost2010PropOp32
 70
     0
102
RTVSPost2010Prop33
280
     0
102
RTVSPost2010PropOp33
 70
     0
102
RTVSPost2010Prop34
280
     0
102
RTVSPost2010PropOp34
 70
     0
102
RTVSPost2010Prop35
280
     0
102
RTVSPost2010PropOp35
 70
     0
102
RTVSPost2010Prop36
280
     0
102
RTVSPost2010PropOp36
 70
     0
102
RTVSPost2010Prop37
 90
       50
102
RTVSPost2010PropOp37
 70
     0
102
RTVSPost2010Prop38
140
0.0
102
RTVSPost2010PropOp38
 70
     0
102
RTVSPost2010Prop39
140
1.0
102
RTVSPost2010PropOp39
 70
     0
102
RTVSPost2010Prop40
 90
        0
102
RTVSPost2010PropOp40
 70
     0
102
RTVSPost2010Prop41ColorIndex
 90
       18
102
RTVSPost2010Prop41ColorRGB
 90
        0
102
RTVSPost2010PropOp41
 70
     0
102
RTVSPost2010Prop42
 90
       50
102
RTVSPost2010PropOp42
 70
     0
102
RTVSPost2010Prop43
 90
        3
102
RTVSPost2010PropOp43
 70
     0
102
RTVSPost2010Prop44ColorIndex
 90
        5
102
RTVSPost2010Prop44ColorRGB
 90
      255
102
RTVSPost2010PropOp44
 70
     0
102
RTVSPost2010Prop45
280
     0
102
RTVSPost2010PropOp45
 70
     0
102
RTVSPost2010Prop46
 90
       50
102
RTVSPost2010PropOp46
 70
     0
102
RTVSPost2010Prop47
 90
       50
102
RTVSPost2010PropOp47
 70
     0
102
RTVSPost2010Prop48
 90
       50
102
RTVSPost2010PropOp48
 70
     0
102
RTVSPost2010Prop49
280
     0
102
RTVSPost2010PropOp49
 70
     0
102
RTVSPost2010Prop50
 90
       50
102
RTVSPost2010PropOp50
 70
     0
102
RTVSPost2010Prop51ColorIndex
 90
      256
102
RTVSPost2010Prop51ColorRGB
 90
-16777216
102
RTVSPost2010PropOp51
 70
     0
102
RTVSPost2010Prop52
140
1.0
102
RTVSPost2010PropOp52
 70
     0
102
RTVSPost2010Prop53
 90
        2
102
RTVSPost2010PropOp53
 70
     0
102
RTVSPost2010Prop54
  1
strokes_ogs.tif
102
RTVSPost2010PropOp54
 70
     0
102
RTVSPost2010Prop55
280
     0
102
RTVSPost2010PropOp55
 70
     0
102
RTVSPost2010Prop56
140
1.0
102
RTVSPost2010PropOp56
 70
     0
102
RTVSPost2010Prop57
140
1.0
102
RTVSPost2010PropOp57
 70
     0
  0
XRECORD
  5
26C
102
{ACAD_REACTORS
330
26B
102
}
330
26B
100
AcDbXrecord
280
     1
102
RTVSPost2010Prop28
280
     0
102
RTVSPost2010PropOp28
 70
     1
102
RTVSPost2010Prop29
280
     1
102
RTVSPost2010PropOp29
 70
     1
102
RTVSPost2010Prop30
280
     1
102
RTVSPost2010PropOp30
 70
     1
102
RTVSPost2010Prop31
280
     0
102
RTVSPost2010PropOp31
 70
     1
102
RTVSPost2010Prop32
280
     0
102
RTVSPost2010PropOp32
 70
     1
102
RTVSPost2010Prop33
280
     0
102
RTVSPost2010PropOp33
 70
     1
102
RTVSPost2010Prop34
280
     0
102
RTVSPost2010PropOp34
 70
     1
102
RTVSPost2010Prop35
280
     0
102
RTVSPost2010PropOp35
 70
     1
102
RTVSPost2010Prop36
280
     0
102
RTVSPost2010PropOp36
 70
     1
102
RTVSPost2010Prop37
 90
       50
102
RTVSPost2010PropOp37
 70
     1
102
RTVSPost2010Prop38
140
0.0
102
RTVSPost2010PropOp38
 70
     1
102
RTVSPost2010Prop39
140
1.0
102
RTVSPost2010PropOp39
 70
     1
102
RTVSPost2010Prop40
 90
        0
102
RTVSPost2010PropOp40
 70
     1
102
RTVSPost2010Prop41ColorIndex
 90
       18
102
RTVSPost2010Prop41ColorRGB
 90
        0
102
RTVSPost2010PropOp41
 70
     1
102
RTVSPost2010Prop42
 90
       50
102
RTVSPost2010PropOp42
 70
     1
102
RTVSPost2010Prop43
 90
        3
102
RTVSPost2010PropOp43
 70
     1
102
RTVSPost2010Prop44ColorIndex
 90
        5
102
RTVSPost2010Prop44ColorRGB
 90
      255
102
RTVSPost2010PropOp44
 70
     1
102
RTVSPost2010Prop45
280
     0
102
RTVSPost2010PropOp45
 70
     1
102
RTVSPost2010Prop46
 90
       50
102
RTVSPost2010PropOp46
 70
     1
102
RTVSPost2010Prop47
 90
       50
102
RTVSPost2010PropOp47
 70
     1
102
RTVSPost2010Prop48
 90
       50
102
RTVSPost2010PropOp48
 70
     1
102
RTVSPost2010Prop49
280
     0
102
RTVSPost2010PropOp49
 70
     1
102
RTVSPost2010Prop50
 90
       50
102
RTVSPost2010PropOp50
 70
     1
102
RTVSPost2010Prop51ColorIndex
 90
      256
102
RTVSPost2010Prop51ColorRGB
 90
-16777216
102
RTVSPost2010PropOp51
 70
     0
102
RTVSPost2010Prop52
140
1.0
102
RTVSPost2010PropOp52
 70
     0
102
RTVSPost2010Prop53
 90
        2
102
RTVSPost2010PropOp53
 70
     1
102
RTVSPost2010Prop54
  1
strokes_ogs.tif
102
RTVSPost2010PropOp54
 70
     1
102
RTVSPost2010Prop55
280
     0
102
RTVSPost2010PropOp55
 70
     1
102
RTVSPost2010Prop56
140
1.0
102
RTVSPost2010PropOp56
 70
     1
102
RTVSPost2010Prop57
140
1.0
102
RTVSPost2010PropOp57
 70
     1
  0
XRECORD
  5
274
102
{ACAD_REACTORS
330
273
102
}
330
273
100
AcDbXrecord
280
     1
102
RTVSPost2010Prop28
280
     0
102
RTVSPost2010PropOp28
 70
     0
102
RTVSPost2010Prop29
280
     1
102
RTVSPost2010PropOp29
 70
     0
102
RTVSPost2010Prop30
280
     1
102
RTVSPost2010PropOp30
 70
     0
102
RTVSPost2010Prop31
280
     0
102
RTVSPost2010PropOp31
 70
     0
102
RTVSPost2010Prop32
280
     0
102
RTVSPost2010PropOp32
 70
     0
102
RTVSPost2010Prop33
280
     0
102
RTVSPost2010PropOp33
 70
     0
102
RTVSPost2010Prop34
280
     0
102
RTVSPost2010PropOp34
 70
     0
102
RTVSPost2010Prop35
280
     0
102
RTVSPost2010PropOp35
 70
     0
102
RTVSPost2010Prop36
280
     0
102
RTVSPost2010PropOp36
 70
     0
102
RTVSPost2010Prop37
 90
       50
102
RTVSPost2010PropOp37
 70
     0
102
RTVSPost2010Prop38
140
0.0
102
RTVSPost2010PropOp38
 70
     0
102
RTVSPost2010Prop39
140
1.0
102
RTVSPost2010PropOp39
 70
     0
102
RTVSPost2010Prop40
 90
        0
102
RTVSPost2010PropOp40
 70
     0
102
RTVSPost2010Prop41ColorIndex
 90
       18
102
RTVSPost2010Prop41ColorRGB
 90
        0
102
RTVSPost2010PropOp41
 70
     0
102
RTVSPost2010Prop42
 90
       50
102
RTVSPost2010PropOp42
 70
     0
102
RTVSPost2010Prop43
 90
        3
102
RTVSPost2010PropOp43
 70
     0
102
RTVSPost2010Prop44ColorIndex
 90
        5
102
RTVSPost2010Prop44ColorRGB
 90
      255
102
RTVSPost2010PropOp44
 70
     0
102
RTVSPost2010Prop45
280
     0
102
RTVSPost2010PropOp45
 70
     0
102
RTVSPost2010Prop46
 90
       50
102
RTVSPost2010PropOp46
 70
     0
102
RTVSPost2010Prop47
 90
       50
102
RTVSPost2010PropOp47
 70
     0
102
RTVSPost2010Prop48
 90
       50
102
RTVSPost2010PropOp48
 70
     0
102
RTVSPost2010Prop49
280
     0
102
RTVSPost2010PropOp49
 70
     0
102
RTVSPost2010Prop50
 90
       50
102
RTVSPost2010PropOp50
 70
     0
102
RTVSPost2010Prop51ColorIndex
 90
      256
102
RTVSPost2010Prop51ColorRGB
 90
-16777216
102
RTVSPost2010PropOp51
 70
     0
102
RTVSPost2010Prop52
140
1.0
102
RTVSPost2010PropOp52
 70
     0
102
RTVSPost2010Prop53
 90
        2
102
RTVSPost2010PropOp53
 70
     0
102
RTVSPost2010Prop54
  1
strokes_ogs.tif
102
RTVSPost2010PropOp54
 70
     0
102
RTVSPost2010Prop55
280
     0
102
RTVSPost2010PropOp55
 70
     0
102
RTVSPost2010Prop56
140
1.0
102
RTVSPost2010PropOp56
 70
     0
102
RTVSPost2010Prop57
140
1.0
102
RTVSPost2010PropOp57
 70
     0
  0
XRECORD
  5
262
102
{ACAD_REACTORS
330
261
102
}
330
261
100
AcDbXrecord
280
     1
102
RTVSPost2010Prop28
280
     0
102
RTVSPost2010PropOp28
 70
     1
102
RTVSPost2010Prop29
280
     1
102
RTVSPost2010PropOp29
 70
     1
102
RTVSPost2010Prop30
280
     1
102
RTVSPost2010PropOp30
 70
     1
102
RTVSPost2010Prop31
280
     0
102
RTVSPost2010PropOp31
 70
     1
102
RTVSPost2010Prop32
280
     0
102
RTVSPost2010PropOp32
 70
     1
102
RTVSPost2010Prop33
280
     0
102
RTVSPost2010PropOp33
 70
     1
102
RTVSPost2010Prop34
280
     0
102
RTVSPost2010PropOp34
 70
     1
102
RTVSPost2010Prop35
280
     0
102
RTVSPost2010PropOp35
 70
     1
102
RTVSPost2010Prop36
280
     0
102
RTVSPost2010PropOp36
 70
     1
102
RTVSPost2010Prop37
 90
       50
102
RTVSPost2010PropOp37
 70
     1
102
RTVSPost2010Prop38
140
0.0
102
RTVSPost2010PropOp38
 70
     1
102
RTVSPost2010Prop39
140
1.0
102
RTVSPost2010PropOp39
 70
     1
102
RTVSPost2010Prop40
 90
        0
102
RTVSPost2010PropOp40
 70
     1
102
RTVSPost2010Prop41ColorIndex
 90
       18
102
RTVSPost2010Prop41ColorRGB
 90
        0
102
RTVSPost2010PropOp41
 70
     1
102
RTVSPost2010Prop42
 90
       50
102
RTVSPost2010PropOp42
 70
     1
102
RTVSPost2010Prop43
 90
        3
102
RTVSPost2010PropOp43
 70
     1
102
RTVSPost2010Prop44ColorIndex
 90
        5
102
RTVSPost2010Prop44ColorRGB
 90
      255
102
RTVSPost2010PropOp44
 70
     1
102
RTVSPost2010Prop45
280
     0
102
RTVSPost2010PropOp45
 70
     1
102
RTVSPost2010Prop46
 90
       50
102
RTVSPost2010PropOp46
 70
     1
102
RTVSPost2010Prop47
 90
       50
102
RTVSPost2010PropOp47
 70
     1
102
RTVSPost2010Prop48
 90
       50
102
RTVSPost2010PropOp48
 70
     1
102
RTVSPost2010Prop49
280
     0
102
RTVSPost2010PropOp49
 70
     1
102
RTVSPost2010Prop50
 90
       50
102
RTVSPost2010PropOp50
 70
     1
102
RTVSPost2010Prop51ColorIndex
 90
      256
102
RTVSPost2010Prop51ColorRGB
 90
-16777216
102
RTVSPost2010PropOp51
 70
     0
102
RTVSPost2010Prop52
140
1.0
102
RTVSPost2010PropOp52
 70
     0
102
RTVSPost2010Prop53
 90
        2
102
RTVSPost2010PropOp53
 70
     1
102
RTVSPost2010Prop54
  1
strokes_ogs.tif
102
RTVSPost2010PropOp54
 70
     1
102
RTVSPost2010Prop55
280
     0
102
RTVSPost2010PropOp55
 70
     1
102
RTVSPost2010Prop56
140
1.0
102
RTVSPost2010PropOp56
 70
     1
102
RTVSPost2010Prop57
140
1.0
102
RTVSPost2010PropOp57
 70
     1
  0
XRECORD
  5
280
102
{ACAD_REACTORS
330
27F
102
}
330
27F
100
AcDbXrecord
280
     1
102
RTVSPost2010Prop28
280
     0
102
RTVSPost2010PropOp28
 70
     1
102
RTVSPost2010Prop29
280
     1
102
RTVSPost2010PropOp29
 70
     1
102
RTVSPost2010Prop30
280
     1
102
RTVSPost2010PropOp30
 70
     1
102
RTVSPost2010Prop31
280
     0
102
RTVSPost2010PropOp31
 70
     1
102
RTVSPost2010Prop32
280
     0
102
RTVSPost2010PropOp32
 70
     1
102
RTVSPost2010Prop33
280
     0
102
RTVSPost2010PropOp33
 70
     1
102
RTVSPost2010Prop34
280
     0
102
RTVSPost2010PropOp34
 70
     1
102
RTVSPost2010Prop35
280
     0
102
RTVSPost2010PropOp35
 70
     1
102
RTVSPost2010Prop36
280
     0
102
RTVSPost2010PropOp36
 70
     1
102
RTVSPost2010Prop37
 90
       50
102
RTVSPost2010PropOp37
 70
     1
102
RTVSPost2010Prop38
140
0.0
102
RTVSPost2010PropOp38
 70
     1
102
RTVSPost2010Prop39
140
1.0
102
RTVSPost2010PropOp39
 70
     1
102
RTVSPost2010Prop40
 90
        0
102
RTVSPost2010PropOp40
 70
     1
102
RTVSPost2010Prop41ColorIndex
 90
       18
102
RTVSPost2010Prop41ColorRGB
 90
        0
102
RTVSPost2010PropOp41
 70
     1
102
RTVSPost2010Prop42
 90
       50
102
RTVSPost2010PropOp42
 70
     1
102
RTVSPost2010Prop43
 90
        3
102
RTVSPost2010PropOp43
 70
     1
102
RTVSPost2010Prop44ColorIndex
 90
        5
102
RTVSPost2010Prop44ColorRGB
 90
      255
102
RTVSPost2010PropOp44
 70
     1
102
RTVSPost2010Prop45
280
     0
102
RTVSPost2010PropOp45
 70
     1
102
RTVSPost2010Prop46
 90
       50
102
RTVSPost2010PropOp46
 70
     1
102
RTVSPost2010Prop47
 90
       50
102
RTVSPost2010PropOp47
 70
     1
102
RTVSPost2010Prop48
 90
       50
102
RTVSPost2010PropOp48
 70
     1
102
RTVSPost2010Prop49
280
     0
102
RTVSPost2010PropOp49
 70
     1
102
RTVSPost2010Prop50
 90
       50
102
RTVSPost2010PropOp50
 70
     1
102
RTVSPost2010Prop51ColorIndex
 90
      256
102
RTVSPost2010Prop51ColorRGB
 90
-16777216
102
RTVSPost2010PropOp51
 70
     0
102
RTVSPost2010Prop52
140
1.0
102
RTVSPost2010PropOp52
 70
     0
102
RTVSPost2010Prop53
 90
        2
102
RTVSPost2010PropOp53
 70
     1
102
RTVSPost2010Prop54
  1
strokes_ogs.tif
102
RTVSPost2010PropOp54
 70
     1
102
RTVSPost2010Prop55
280
     0
102
RTVSPost2010PropOp55
 70
     1
102
RTVSPost2010Prop56
140
1.0
102
RTVSPost2010PropOp56
 70
     1
102
RTVSPost2010Prop57
140
1.0
102
RTVSPost2010PropOp57
 70
     1
  0
XRECORD
  5
27E
102
{ACAD_REACTORS
330
27D
102
}
330
27D
100
AcDbXrecord
280
     1
102
RTVSPost2010Prop28
280
     0
102
RTVSPost2010PropOp28
 70
     1
102
RTVSPost2010Prop29
280
     1
102
RTVSPost2010PropOp29
 70
     1
102
RTVSPost2010Prop30
280
     1
102
RTVSPost2010PropOp30
 70
     1
102
RTVSPost2010Prop31
280
     0
102
RTVSPost2010PropOp31
 70
     1
102
RTVSPost2010Prop32
280
     0
102
RTVSPost2010PropOp32
 70
     1
102
RTVSPost2010Prop33
280
     0
102
RTVSPost2010PropOp33
 70
     1
102
RTVSPost2010Prop34
280
     0
102
RTVSPost2010PropOp34
 70
     1
102
RTVSPost2010Prop35
280
     0
102
RTVSPost2010PropOp35
 70
     1
102
RTVSPost2010Prop36
280
     0
102
RTVSPost2010PropOp36
 70
     1
102
RTVSPost2010Prop37
 90
       50
102
RTVSPost2010PropOp37
 70
     1
102
RTVSPost2010Prop38
140
0.0
102
RTVSPost2010PropOp38
 70
     1
102
RTVSPost2010Prop39
140
1.0
102
RTVSPost2010PropOp39
 70
     1
102
RTVSPost2010Prop40
 90
        0
102
RTVSPost2010PropOp40
 70
     1
102
RTVSPost2010Prop41ColorIndex
 90
       18
102
RTVSPost2010Prop41ColorRGB
 90
        0
102
RTVSPost2010PropOp41
 70
     1
102
RTVSPost2010Prop42
 90
       50
102
RTVSPost2010PropOp42
 70
     1
102
RTVSPost2010Prop43
 90
        3
102
RTVSPost2010PropOp43
 70
     1
102
RTVSPost2010Prop44ColorIndex
 90
        5
102
RTVSPost2010Prop44ColorRGB
 90
      255
102
RTVSPost2010PropOp44
 70
     1
102
RTVSPost2010Prop45
280
     0
102
RTVSPost2010PropOp45
 70
     1
102
RTVSPost2010Prop46
 90
       50
102
RTVSPost2010PropOp46
 70
     1
102
RTVSPost2010Prop47
 90
       50
102
RTVSPost2010PropOp47
 70
     1
102
RTVSPost2010Prop48
 90
       50
102
RTVSPost2010PropOp48
 70
     1
102
RTVSPost2010Prop49
280
     0
102
RTVSPost2010PropOp49
 70
     1
102
RTVSPost2010Prop50
 90
       50
102
RTVSPost2010PropOp50
 70
     1
102
RTVSPost2010Prop51ColorIndex
 90
      256
102
RTVSPost2010Prop51ColorRGB
 90
-16777216
102
RTVSPost2010PropOp51
 70
     0
102
RTVSPost2010Prop52
140
1.0
102
RTVSPost2010PropOp52
 70
     0
102
RTVSPost2010Prop53
 90
        2
102
RTVSPost2010PropOp53
 70
     1
102
RTVSPost2010Prop54
  1
strokes_ogs.tif
102
RTVSPost2010PropOp54
 70
     1
102
RTVSPost2010Prop55
280
     0
102
RTVSPost2010PropOp55
 70
     1
102
RTVSPost2010Prop56
140
1.0
102
RTVSPost2010PropOp56
 70
     1
102
RTVSPost2010Prop57
140
1.0
102
RTVSPost2010PropOp57
 70
     1
  0
XRECORD
  5
278
102
{ACAD_REACTORS
330
277
102
}
330
277
100
AcDbXrecord
280
     1
102
RTVSPost2010Prop28
280
     0
102
RTVSPost2010PropOp28
 70
     1
102
RTVSPost2010Prop29
280
     1
102
RTVSPost2010PropOp29
 70
     1
102
RTVSPost2010Prop30
280
     1
102
RTVSPost2010PropOp30
 70
     1
102
RTVSPost2010Prop31
280
     0
102
RTVSPost2010PropOp31
 70
     1
102
RTVSPost2010Prop32
280
     0
102
RTVSPost2010PropOp32
 70
     1
102
RTVSPost2010Prop33
280
     0
102
RTVSPost2010PropOp33
 70
     1
102
RTVSPost2010Prop34
280
     0
102
RTVSPost2010PropOp34
 70
     1
102
RTVSPost2010Prop35
280
     0
102
RTVSPost2010PropOp35
 70
     1
102
RTVSPost2010Prop36
280
     0
102
RTVSPost2010PropOp36
 70
     1
102
RTVSPost2010Prop37
 90
       50
102
RTVSPost2010PropOp37
 70
     1
102
RTVSPost2010Prop38
140
0.0
102
RTVSPost2010PropOp38
 70
     1
102
RTVSPost2010Prop39
140
1.0
102
RTVSPost2010PropOp39
 70
     1
102
RTVSPost2010Prop40
 90
        0
102
RTVSPost2010PropOp40
 70
     1
102
RTVSPost2010Prop41ColorIndex
 90
       18
102
RTVSPost2010Prop41ColorRGB
 90
        0
102
RTVSPost2010PropOp41
 70
     1
102
RTVSPost2010Prop42
 90
       50
102
RTVSPost2010PropOp42
 70
     1
102
RTVSPost2010Prop43
 90
        3
102
RTVSPost2010PropOp43
 70
     1
102
RTVSPost2010Prop44ColorIndex
 90
        5
102
RTVSPost2010Prop44ColorRGB
 90
      255
102
RTVSPost2010PropOp44
 70
     1
102
RTVSPost2010Prop45
280
     0
102
RTVSPost2010PropOp45
 70
     1
102
RTVSPost2010Prop46
 90
       50
102
RTVSPost2010PropOp46
 70
     1
102
RTVSPost2010Prop47
 90
       50
102
RTVSPost2010PropOp47
 70
     1
102
RTVSPost2010Prop48
 90
       50
102
RTVSPost2010PropOp48
 70
     1
102
RTVSPost2010Prop49
280
     0
102
RTVSPost2010PropOp49
 70
     1
102
RTVSPost2010Prop50
 90
       50
102
RTVSPost2010PropOp50
 70
     1
102
RTVSPost2010Prop51ColorIndex
 90
      256
102
RTVSPost2010Prop51ColorRGB
 90
-16777216
102
RTVSPost2010PropOp51
 70
     0
102
RTVSPost2010Prop52
140
1.0
102
RTVSPost2010PropOp52
 70
     0
102
RTVSPost2010Prop53
 90
        2
102
RTVSPost2010PropOp53
 70
     1
102
RTVSPost2010Prop54
  1
strokes_ogs.tif
102
RTVSPost2010PropOp54
 70
     1
102
RTVSPost2010Prop55
280
     0
102
RTVSPost2010PropOp55
 70
     1
102
RTVSPost2010Prop56
140
1.0
102
RTVSPost2010PropOp56
 70
     1
102
RTVSPost2010Prop57
140
1.0
102
RTVSPost2010PropOp57
 70
     1
  0
XRECORD
  5
27A
102
{ACAD_REACTORS
330
279
102
}
330
279
100
AcDbXrecord
280
     1
102
RTVSPost2010Prop28
280
     0
102
RTVSPost2010PropOp28
 70
     1
102
RTVSPost2010Prop29
280
     1
102
RTVSPost2010PropOp29
 70
     1
102
RTVSPost2010Prop30
280
     1
102
RTVSPost2010PropOp30
 70
     1
102
RTVSPost2010Prop31
280
     0
102
RTVSPost2010PropOp31
 70
     1
102
RTVSPost2010Prop32
280
     0
102
RTVSPost2010PropOp32
 70
     1
102
RTVSPost2010Prop33
280
     0
102
RTVSPost2010PropOp33
 70
     1
102
RTVSPost2010Prop34
280
     0
102
RTVSPost2010PropOp34
 70
     1
102
RTVSPost2010Prop35
280
     0
102
RTVSPost2010PropOp35
 70
     1
102
RTVSPost2010Prop36
280
     0
102
RTVSPost2010PropOp36
 70
     1
102
RTVSPost2010Prop37
 90
       50
102
RTVSPost2010PropOp37
 70
     1
102
RTVSPost2010Prop38
140
0.0
102
RTVSPost2010PropOp38
 70
     1
102
RTVSPost2010Prop39
140
1.0
102
RTVSPost2010PropOp39
 70
     1
102
RTVSPost2010Prop40
 90
        0
102
RTVSPost2010PropOp40
 70
     1
102
RTVSPost2010Prop41ColorIndex
 90
       18
102
RTVSPost2010Prop41ColorRGB
 90
        0
102
RTVSPost2010PropOp41
 70
     1
102
RTVSPost2010Prop42
 90
       50
102
RTVSPost2010PropOp42
 70
     1
102
RTVSPost2010Prop43
 90
        3
102
RTVSPost2010PropOp43
 70
     1
102
RTVSPost2010Prop44ColorIndex
 90
        5
102
RTVSPost2010Prop44ColorRGB
 90
      255
102
RTVSPost2010PropOp44
 70
     1
102
RTVSPost2010Prop45
280
     0
102
RTVSPost2010PropOp45
 70
     1
102
RTVSPost2010Prop46
 90
       50
102
RTVSPost2010PropOp46
 70
     1
102
RTVSPost2010Prop47
 90
       50
102
RTVSPost2010PropOp47
 70
     1
102
RTVSPost2010Prop48
 90
       50
102
RTVSPost2010PropOp48
 70
     1
102
RTVSPost2010Prop49
280
     0
102
RTVSPost2010PropOp49
 70
     1
102
RTVSPost2010Prop50
 90
       50
102
RTVSPost2010PropOp50
 70
     1
102
RTVSPost2010Prop51ColorIndex
 90
      256
102
RTVSPost2010Prop51ColorRGB
 90
-16777216
102
RTVSPost2010PropOp51
 70
     0
102
RTVSPost2010Prop52
140
1.0
102
RTVSPost2010PropOp52
 70
     0
102
RTVSPost2010Prop53
 90
        2
102
RTVSPost2010PropOp53
 70
     1
102
RTVSPost2010Prop54
  1
strokes_ogs.tif
102
RTVSPost2010PropOp54
 70
     1
102
RTVSPost2010Prop55
280
     0
102
RTVSPost2010PropOp55
 70
     1
102
RTVSPost2010Prop56
140
1.0
102
RTVSPost2010PropOp56
 70
     1
102
RTVSPost2010Prop57
140
1.0
102
RTVSPost2010PropOp57
 70
     1
  0
XRECORD
  5
26A
102
{ACAD_REACTORS
330
269
102
}
330
269
100
AcDbXrecord
280
     1
102
RTVSPost2010Prop28
280
     0
102
RTVSPost2010PropOp28
 70
     1
102
RTVSPost2010Prop29
280
     1
102
RTVSPost2010PropOp29
 70
     1
102
RTVSPost2010Prop30
280
     1
102
RTVSPost2010PropOp30
 70
     1
102
RTVSPost2010Prop31
280
     0
102
RTVSPost2010PropOp31
 70
     1
102
RTVSPost2010Prop32
280
     0
102
RTVSPost2010PropOp32
 70
     1
102
RTVSPost2010Prop33
280
     0
102
RTVSPost2010PropOp33
 70
     1
102
RTVSPost2010Prop34
280
     0
102
RTVSPost2010PropOp34
 70
     1
102
RTVSPost2010Prop35
280
     0
102
RTVSPost2010PropOp35
 70
     1
102
RTVSPost2010Prop36
280
     0
102
RTVSPost2010PropOp36
 70
     1
102
RTVSPost2010Prop37
 90
       50
102
RTVSPost2010PropOp37
 70
     1
102
RTVSPost2010Prop38
140
0.0
102
RTVSPost2010PropOp38
 70
     1
102
RTVSPost2010Prop39
140
1.0
102
RTVSPost2010PropOp39
 70
     1
102
RTVSPost2010Prop40
 90
        0
102
RTVSPost2010PropOp40
 70
     1
102
RTVSPost2010Prop41ColorIndex
 90
       18
102
RTVSPost2010Prop41ColorRGB
 90
        0
102
RTVSPost2010PropOp41
 70
     1
102
RTVSPost2010Prop42
 90
       50
102
RTVSPost2010PropOp42
 70
     1
102
RTVSPost2010Prop43
 90
        3
102
RTVSPost2010PropOp43
 70
     1
102
RTVSPost2010Prop44ColorIndex
 90
        5
102
RTVSPost2010Prop44ColorRGB
 90
      255
102
RTVSPost2010PropOp44
 70
     1
102
RTVSPost2010Prop45
280
     0
102
RTVSPost2010PropOp45
 70
     1
102
RTVSPost2010Prop46
 90
       50
102
RTVSPost2010PropOp46
 70
     1
102
RTVSPost2010Prop47
 90
       50
102
RTVSPost2010PropOp47
 70
     1
102
RTVSPost2010Prop48
 90
       50
102
RTVSPost2010PropOp48
 70
     1
102
RTVSPost2010Prop49
280
     0
102
RTVSPost2010PropOp49
 70
     1
102
RTVSPost2010Prop50
 90
       50
102
RTVSPost2010PropOp50
 70
     1
102
RTVSPost2010Prop51ColorIndex
 90
      256
102
RTVSPost2010Prop51ColorRGB
 90
-16777216
102
RTVSPost2010PropOp51
 70
     0
102
RTVSPost2010Prop52
140
1.0
102
RTVSPost2010PropOp52
 70
     0
102
RTVSPost2010Prop53
 90
        2
102
RTVSPost2010PropOp53
 70
     1
102
RTVSPost2010Prop54
  1
strokes_ogs.tif
102
RTVSPost2010PropOp54
 70
     1
102
RTVSPost2010Prop55
280
     0
102
RTVSPost2010PropOp55
 70
     1
102
RTVSPost2010Prop56
140
1.0
102
RTVSPost2010PropOp56
 70
     1
102
RTVSPost2010Prop57
140
1.0
102
RTVSPost2010PropOp57
 70
     1
  0
XRECORD
  5
25C
102
{ACAD_REACTORS
330
25B
102
}
330
25B
100
AcDbXrecord
280
     1
102
RTVSPost2010Prop28
280
     0
102
RTVSPost2010PropOp28
 70
     1
102
RTVSPost2010Prop29
280
     1
102
RTVSPost2010PropOp29
 70
     1
102
RTVSPost2010Prop30
280
     1
102
RTVSPost2010PropOp30
 70
     1
102
RTVSPost2010Prop31
280
     0
102
RTVSPost2010PropOp31
 70
     1
102
RTVSPost2010Prop32
280
     0
102
RTVSPost2010PropOp32
 70
     1
102
RTVSPost2010Prop33
280
     0
102
RTVSPost2010PropOp33
 70
     1
102
RTVSPost2010Prop34
280
     0
102
RTVSPost2010PropOp34
 70
     1
102
RTVSPost2010Prop35
280
     0
102
RTVSPost2010PropOp35
 70
     1
102
RTVSPost2010Prop36
280
     0
102
RTVSPost2010PropOp36
 70
     1
102
RTVSPost2010Prop37
 90
       50
102
RTVSPost2010PropOp37
 70
     1
102
RTVSPost2010Prop38
140
0.0
102
RTVSPost2010PropOp38
 70
     1
102
RTVSPost2010Prop39
140
1.0
102
RTVSPost2010PropOp39
 70
     1
102
RTVSPost2010Prop40
 90
        0
102
RTVSPost2010PropOp40
 70
     1
102
RTVSPost2010Prop41ColorIndex
 90
       18
102
RTVSPost2010Prop41ColorRGB
 90
        0
102
RTVSPost2010PropOp41
 70
     1
102
RTVSPost2010Prop42
 90
       50
102
RTVSPost2010PropOp42
 70
     1
102
RTVSPost2010Prop43
 90
        3
102
RTVSPost2010PropOp43
 70
     1
102
RTVSPost2010Prop44ColorIndex
 90
        5
102
RTVSPost2010Prop44ColorRGB
 90
      255
102
RTVSPost2010PropOp44
 70
     1
102
RTVSPost2010Prop45
280
     0
102
RTVSPost2010PropOp45
 70
     1
102
RTVSPost2010Prop46
 90
       50
102
RTVSPost2010PropOp46
 70
     1
102
RTVSPost2010Prop47
 90
       50
102
RTVSPost2010PropOp47
 70
     1
102
RTVSPost2010Prop48
 90
       50
102
RTVSPost2010PropOp48
 70
     1
102
RTVSPost2010Prop49
280
     0
102
RTVSPost2010PropOp49
 70
     1
102
RTVSPost2010Prop50
 90
       50
102
RTVSPost2010PropOp50
 70
     1
102
RTVSPost2010Prop51ColorIndex
 90
      256
102
RTVSPost2010Prop51ColorRGB
 90
-16777216
102
RTVSPost2010PropOp51
 70
     0
102
RTVSPost2010Prop52
140
1.0
102
RTVSPost2010PropOp52
 70
     0
102
RTVSPost2010Prop53
 90
        2
102
RTVSPost2010PropOp53
 70
     1
102
RTVSPost2010Prop54
  1
strokes_ogs.tif
102
RTVSPost2010PropOp54
 70
     1
102
RTVSPost2010Prop55
280
     0
102
RTVSPost2010PropOp55
 70
     1
102
RTVSPost2010Prop56
140
1.0
102
RTVSPost2010PropOp56
 70
     1
102
RTVSPost2010Prop57
140
1.0
102
RTVSPost2010PropOp57
 70
     1
  0
XRECORD
  5
27C
102
{ACAD_REACTORS
330
27B
102
}
330
27B
100
AcDbXrecord
280
     1
102
RTVSPost2010Prop28
280
     0
102
RTVSPost2010PropOp28
 70
     1
102
RTVSPost2010Prop29
280
     1
102
RTVSPost2010PropOp29
 70
     1
102
RTVSPost2010Prop30
280
     1
102
RTVSPost2010PropOp30
 70
     1
102
RTVSPost2010Prop31
280
     0
102
RTVSPost2010PropOp31
 70
     1
102
RTVSPost2010Prop32
280
     0
102
RTVSPost2010PropOp32
 70
     1
102
RTVSPost2010Prop33
280
     0
102
RTVSPost2010PropOp33
 70
     1
102
RTVSPost2010Prop34
280
     0
102
RTVSPost2010PropOp34
 70
     1
102
RTVSPost2010Prop35
280
     0
102
RTVSPost2010PropOp35
 70
     1
102
RTVSPost2010Prop36
280
     0
102
RTVSPost2010PropOp36
 70
     1
102
RTVSPost2010Prop37
 90
       50
102
RTVSPost2010PropOp37
 70
     1
102
RTVSPost2010Prop38
140
0.0
102
RTVSPost2010PropOp38
 70
     1
102
RTVSPost2010Prop39
140
1.0
102
RTVSPost2010PropOp39
 70
     1
102
RTVSPost2010Prop40
 90
        0
102
RTVSPost2010PropOp40
 70
     1
102
RTVSPost2010Prop41ColorIndex
 90
       18
102
RTVSPost2010Prop41ColorRGB
 90
        0
102
RTVSPost2010PropOp41
 70
     1
102
RTVSPost2010Prop42
 90
       50
102
RTVSPost2010PropOp42
 70
     1
102
RTVSPost2010Prop43
 90
        3
102
RTVSPost2010PropOp43
 70
     1
102
RTVSPost2010Prop44ColorIndex
 90
        5
102
RTVSPost2010Prop44ColorRGB
 90
      255
102
RTVSPost2010PropOp44
 70
     1
102
RTVSPost2010Prop45
280
     0
102
RTVSPost2010PropOp45
 70
     1
102
RTVSPost2010Prop46
 90
       50
102
RTVSPost2010PropOp46
 70
     1
102
RTVSPost2010Prop47
 90
       50
102
RTVSPost2010PropOp47
 70
     1
102
RTVSPost2010Prop48
 90
       50
102
RTVSPost2010PropOp48
 70
     1
102
RTVSPost2010Prop49
280
     0
102
RTVSPost2010PropOp49
 70
     1
102
RTVSPost2010Prop50
 90
       50
102
RTVSPost2010PropOp50
 70
     1
102
RTVSPost2010Prop51ColorIndex
 90
      256
102
RTVSPost2010Prop51ColorRGB
 90
-16777216
102
RTVSPost2010PropOp51
 70
     0
102
RTVSPost2010Prop52
140
1.0
102
RTVSPost2010PropOp52
 70
     0
102
RTVSPost2010Prop53
 90
        2
102
RTVSPost2010PropOp53
 70
     1
102
RTVSPost2010Prop54
  1
strokes_ogs.tif
102
RTVSPost2010PropOp54
 70
     1
102
RTVSPost2010Prop55
280
     0
102
RTVSPost2010PropOp55
 70
     1
102
RTVSPost2010Prop56
140
1.0
102
RTVSPost2010PropOp56
 70
     1
102
RTVSPost2010Prop57
140
1.0
102
RTVSPost2010PropOp57
 70
     1
  0
ENDSEC
  0
EOF
