  0
SECTION
  2
HEADER
  9
$ACADVER
  1
AC1024
  9
$ACADMAINTVER
 70
     6
  9
$DWGCODEPAGE
  3
ANSI_1252
  9
$LASTSAVEDBY
  1
m.muehle
  9
$INSBASE
 10
0.0
 20
0.0
 30
0.0
  9
$EXTMIN
 10
-586.016099765425
 20
-211.944918813414
 30
0.0
  9
$EXTMAX
 10
170.265104643718
 20
118.055081186586
 30
0.0
  9
$LIMMIN
 10
0.0
 20
0.0
  9
$LIMMAX
 10
420.0
 20
297.0
  9
$ORTHOMODE
 70
     0
  9
$REGENMODE
 70
     1
  9
$FILLMODE
 70
     1
  9
$QTEXTMODE
 70
     0
  9
$MIRRTEXT
 70
     1
  9
$LTSCALE
 40
5.0
  9
$ATTMODE
 70
     1
  9
$TEXTSIZE
 40
2.5
  9
$TRACEWID
 40
1.0
  9
$TEXTSTYLE
  7
Standard
  9
$CLAYER
  8
0
  9
$CELTYPE
  6
ByLayer
  9
$CECOLOR
 62
   256
  9
$CELTSCALE
 40
1.0
  9
$DISPSILH
 70
     0
  9
$DIMSCALE
 40
1.0
  9
$DIMASZ
 40
2.5
  9
$DIMEXO
 40
0.625
  9
$DIMDLI
 40
3.75
  9
$DIMRND
 40
0.0
  9
$DIMDLE
 40
0.0
  9
$DIMEXE
 40
1.25
  9
$DIMTP
 40
0.0
  9
$DIMTM
 40
0.0
  9
$DIMTXT
 40
2.5
  9
$DIMCEN
 40
2.5
  9
$DIMTSZ
 40
0.0
  9
$DIMTOL
 70
     0
  9
$DIMLIM
 70
     0
  9
$DIMTIH
 70
     0
  9
$DIMTOH
 70
     0
  9
$DIMSE1
 70
     0
  9
$DIMSE2
 70
     0
  9
$DIMTAD
 70
     1
  9
$DIMZIN
 70
     8
  9
$DIMBLK
  1

  9
$DIMASO
 70
     1
  9
$DIMSHO
 70
     1
  9
$DIMPOST
  1

  9
$DIMAPOST
  1

  9
$DIMALT
 70
     0
  9
$DIMALTD
 70
     3
  9
$DIMALTF
 40
0.03937007874
  9
$DIMLFAC
 40
1.0
  9
$DIMTOFL
 70
     1
  9
$DIMTVP
 40
0.0
  9
$DIMTIX
 70
     0
  9
$DIMSOXD
 70
     0
  9
$DIMSAH
 70
     0
  9
$DIMBLK1
  1

  9
$DIMBLK2
  1

  9
$DIMSTYLE
  2
ISO-25
  9
$DIMCLRD
 70
     0
  9
$DIMCLRE
 70
     0
  9
$DIMCLRT
 70
     0
  9
$DIMTFAC
 40
1.0
  9
$DIMGAP
 40
0.625
  9
$DIMJUST
 70
     0
  9
$DIMSD1
 70
     0
  9
$DIMSD2
 70
     0
  9
$DIMTOLJ
 70
     0
  9
$DIMTZIN
 70
     8
  9
$DIMALTZ
 70
     0
  9
$DIMALTTZ
 70
     0
  9
$DIMUPT
 70
     0
  9
$DIMDEC
 70
     2
  9
$DIMTDEC
 70
     2
  9
$DIMALTU
 70
     2
  9
$DIMALTTD
 70
     3
  9
$DIMTXSTY
  7
Standard
  9
$DIMAUNIT
 70
     0
  9
$DIMADEC
 70
     0
  9
$DIMALTRND
 40
0.0
  9
$DIMAZIN
 70
     0
  9
$DIMDSEP
 70
    44
  9
$DIMATFIT
 70
     3
  9
$DIMFRAC
 70
     0
  9
$DIMLDRBLK
  1

  9
$DIMLUNIT
 70
     2
  9
$DIMLWD
 70
    -2
  9
$DIMLWE
 70
    -2
  9
$DIMTMOVE
 70
     0
  9
$DIMFXL
 40
1.0
  9
$DIMFXLON
 70
     0
  9
$DIMJOGANG
 40
0.785398163397
  9
$DIMTFILL
 70
     0
  9
$DIMTFILLCLR
 70
     0
  9
$DIMARCSYM
 70
     0
  9
$DIMLTYPE
  6

  9
$DIMLTEX1
  6

  9
$DIMLTEX2
  6

  9
$DIMTXTDIRECTION
 70
     0
  9
$LUNITS
 70
     2
  9
$LUPREC
 70
     4
  9
$SKETCHINC
 40
1.0
  9
$FILLETRAD
 40
10.0
  9
$AUNITS
 70
     0
  9
$AUPREC
 70
     0
  9
$MENU
  1
.
  9
$ELEVATION
 40
0.0
  9
$PELEVATION
 40
0.0
  9
$THICKNESS
 40
0.0
  9
$LIMCHECK
 70
     0
  9
$CHAMFERA
 40
0.0
  9
$CHAMFERB
 40
0.0
  9
$CHAMFERC
 40
0.0
  9
$CHAMFERD
 40
0.0
  9
$SKPOLY
 70
     0
  9
$TDCREATE
 40
2458892.280188032
  9
$TDUCREATE
 40
2458892.238521366
  9
$TDUPDATE
 40
2458892.280192558
  9
$TDUUPDATE
 40
2458892.238525891
  9
$TDINDWG
 40
0.0000000116
  9
$TDUSRTIMER
 40
0.0000000116
  9
$USRTIMER
 70
     1
  9
$ANGBASE
 50
0.0
  9
$ANGDIR
 70
     0
  9
$PDMODE
 70
     2
  9
$PDSIZE
 40
1.0
  9
$PLINEWID
 40
0.0
  9
$SPLFRAME
 70
     0
  9
$SPLINETYPE
 70
     6
  9
$SPLINESEGS
 70
     8
  9
$HANDSEED
  5
29E
  9
$SURFTAB1
 70
     6
  9
$SURFTAB2
 70
     6
  9
$SURFTYPE
 70
     6
  9
$SURFU
 70
     6
  9
$SURFV
 70
     6
  9
$UCSBASE
  2

  9
$UCSNAME
  2

  9
$UCSORG
 10
0.0
 20
0.0
 30
0.0
  9
$UCSXDIR
 10
1.0
 20
0.0
 30
0.0
  9
$UCSYDIR
 10
0.0
 20
1.0
 30
0.0
  9
$UCSORTHOREF
  2

  9
$UCSORTHOVIEW
 70
     0
  9
$UCSORGTOP
 10
0.0
 20
0.0
 30
0.0
  9
$UCSORGBOTTOM
 10
0.0
 20
0.0
 30
0.0
  9
$UCSORGLEFT
 10
0.0
 20
0.0
 30
0.0
  9
$UCSORGRIGHT
 10
0.0
 20
0.0
 30
0.0
  9
$UCSORGFRONT
 10
0.0
 20
0.0
 30
0.0
  9
$UCSORGBACK
 10
0.0
 20
0.0
 30
0.0
  9
$PUCSBASE
  2

  9
$PUCSNAME
  2

  9
$PUCSORG
 10
0.0
 20
0.0
 30
0.0
  9
$PUCSXDIR
 10
1.0
 20
0.0
 30
0.0
  9
$PUCSYDIR
 10
0.0
 20
1.0
 30
0.0
  9
$PUCSORTHOREF
  2

  9
$PUCSORTHOVIEW
 70
     0
  9
$PUCSORGTOP
 10
0.0
 20
0.0
 30
0.0
  9
$PUCSORGBOTTOM
 10
0.0
 20
0.0
 30
0.0
  9
$PUCSORGLEFT
 10
0.0
 20
0.0
 30
0.0
  9
$PUCSORGRIGHT
 10
0.0
 20
0.0
 30
0.0
  9
$PUCSORGFRONT
 10
0.0
 20
0.0
 30
0.0
  9
$PUCSORGBACK
 10
0.0
 20
0.0
 30
0.0
  9
$USERI1
 70
     0
  9
$USERI2
 70
     0
  9
$USERI3
 70
     0
  9
$USERI4
 70
     0
  9
$USERI5
 70
     0
  9
$USERR1
 40
0.0
  9
$USERR2
 40
0.0
  9
$USERR3
 40
0.0
  9
$USERR4
 40
0.0
  9
$USERR5
 40
0.0
  9
$WORLDVIEW
 70
     1
  9
$SHADEDGE
 70
     3
  9
$SHADEDIF
 70
    70
  9
$TILEMODE
 70
     1
  9
$MAXACTVP
 70
    64
  9
$PINSBASE
 10
0.0
 20
0.0
 30
0.0
  9
$PLIMCHECK
 70
     0
  9
$PEXTMIN
 10
1.000000000000E+20
 20
1.000000000000E+20
 30
1.000000000000E+20
  9
$PEXTMAX
 10
-1.000000000000E+20
 20
-1.000000000000E+20
 30
-1.000000000000E+20
  9
$PLIMMIN
 10
0.0
 20
0.0
  9
$PLIMMAX
 10
420.0
 20
297.0
  9
$UNITMODE
 70
     0
  9
$VISRETAIN
 70
     1
  9
$PLINEGEN
 70
     0
  9
$PSLTSCALE
 70
     1
  9
$TREEDEPTH
 70
  3020
  9
$CMLSTYLE
  2
Standard
  9
$CMLJUST
 70
     0
  9
$CMLSCALE
 40
20.0
  9
$PROXYGRAPHICS
 70
     1
  9
$MEASUREMENT
 70
     1
  9
$CELWEIGHT
370
    -1
  9
$ENDCAPS
280
     0
  9
$JOINSTYLE
280
     0
  9
$LWDISPLAY
290
     0
  9
$INSUNITS
 70
     4
  9
$HYPERLINKBASE
  1

  9
$STYLESHEET
  1

  9
$XEDIT
290
     1
  9
$CEPSNTYPE
380
     0
  9
$PSTYLEMODE
290
     1
  9
$FINGERPRINTGUID
  2
{a0cdda46-93cc-4da3-b9dd-3d20fb659763}
  9
$VERSIONGUID
  2
{FAEB1C32-E019-11D5-929B-00C0DF256EC4}
  9
$EXTNAMES
290
     1
  9
$PSVPSCALE
 40
0.0
  9
$OLESTARTUP
290
     0
  9
$SORTENTS
280
   127
  9
$INDEXCTL
280
     0
  9
$HIDETEXT
280
     1
  9
$XCLIPFRAME
280
     2
  9
$HALOGAP
280
     0
  9
$OBSCOLOR
 70
   257
  9
$OBSLTYPE
280
     0
  9
$INTERSECTIONDISPLAY
280
     0
  9
$INTERSECTIONCOLOR
 70
   257
  9
$DIMASSOC
280
     2
  9
$PROJECTNAME
  1

  9
$CAMERADISPLAY
290
     0
  9
$LENSLENGTH
 40
50.0
  9
$CAMERAHEIGHT
 40
0.0
  9
$STEPSPERSEC
 40
2.0
  9
$STEPSIZE
 40
6.0
  9
$3DDWFPREC
 40
2.0
  9
$PSOLWIDTH
 40
5.0
  9
$PSOLHEIGHT
 40
80.0
  9
$LOFTANG1
 40
1.570796326795
  9
$LOFTANG2
 40
1.570796326795
  9
$LOFTMAG1
 40
0.0
  9
$LOFTMAG2
 40
0.0
  9
$LOFTPARAM
 70
     7
  9
$LOFTNORMALS
280
     1
  9
$LATITUDE
 40
37.795
  9
$LONGITUDE
 40
-122.394
  9
$NORTHDIRECTION
 40
0.0
  9
$TIMEZONE
 70
 -8000
  9
$LIGHTGLYPHDISPLAY
280
     1
  9
$TILEMODELIGHTSYNCH
280
     1
  9
$CMATERIAL
347
44
  9
$SOLIDHIST
280
     0
  9
$SHOWHIST
280
     1
  9
$DWFFRAME
280
     2
  9
$DGNFRAME
280
     2
  9
$REALWORLDSCALE
290
     1
  9
$INTERFERECOLOR
 62
   256
  9
$CSHADOW
280
     0
  9
$SHADOWPLANELOCATION
 40
0.0
  0
ENDSEC
  0
SECTION
  2
CLASSES
  0
CLASS
  1
ACDBDICTIONARYWDFLT
  2
AcDbDictionaryWithDefault
  3
ObjectDBX Classes
 90
        0
 91
        3
280
     0
281
     0
  0
CLASS
  1
VISUALSTYLE
  2
AcDbVisualStyle
  3
ObjectDBX Classes
 90
     4095
 91
        3
280
     0
281
     0
  0
CLASS
  1
MATERIAL
  2
AcDbMaterial
  3
ObjectDBX Classes
 90
     1153
 91
        3
280
     0
281
     0
  0
CLASS
  1
SCALE
  2
AcDbScale
  3
ObjectDBX Classes
 90
     1153
 91
        3
280
     0
281
     0
  0
CLASS
  1
TABLESTYLE
  2
AcDbTableStyle
  3
ObjectDBX Classes
 90
     4095
 91
        3
280
     0
281
     0
  0
CLASS
  1
MLEADERSTYLE
  2
AcDbMLeaderStyle
  3
ACDB_MLEADERSTYLE_CLASS
 90
     4095
 91
        3
280
     0
281
     0
  0
CLASS
  1
SUN
  2
AcDbSun
  3
SCENEOE
 90
     1153
 91
        3
280
     0
281
     0
  0
CLASS
  1
DICTIONARYVAR
  2
AcDbDictionaryVar
  3
ObjectDBX Classes
 90
        0
 91
        3
280
     0
281
     0
  0
CLASS
  1
CELLSTYLEMAP
  2
AcDbCellStyleMap
  3
ObjectDBX Classes
 90
     1152
 91
        3
280
     0
281
     0
  0
CLASS
  1
WIPEOUTVARIABLES
  2
AcDbWipeoutVariables
  3
WipeOut|AutoCAD Express Tool|expresstools@autodesk.com
 90
        0
 91
        3
280
     0
281
     0
  0
ENDSEC
  0
SECTION
  2
TABLES
  0
TABLE
  2
VPORT
  5
8
330
0
100
AcDbSymbolTable
 70
     1
  0
VPORT
  5
29
330
8
100
AcDbSymbolTableRecord
100
AcDbViewportTableRecord
  2
*Active
 70
     0
 10
0.0
 20
0.0
 11
1.0
 21
1.0
 12
-207.875497560853
 22
-46.944918813414
 13
0.0
 23
0.0
 14
10.0
 24
10.0
 15
10.0
 25
10.0
 16
0.0
 26
0.0
 36
1.0
 17
0.0
 27
0.0
 37
0.0
 40
330.0
 41
2.291761225482
 42
50.0
 43
0.0
 44
0.0
 50
0.0
 51
0.0
 71
     0
 72
   100
 73
     1
 74
     3
 75
     0
 76
     0
 77
     0
 78
     0
281
     0
 65
     1
110
0.0
120
0.0
130
0.0
111
1.0
121
0.0
131
0.0
112
0.0
122
1.0
132
0.0
 79
     0
146
0.0
348
2F
 60
     3
 61
     5
292
     1
282
     1
141
0.0
142
0.0
 63
   250
361
6D
  0
ENDTAB
  0
TABLE
  2
LTYPE
  5
5
330
0
100
AcDbSymbolTable
 70
     4
  0
LTYPE
  5
14
330
5
100
AcDbSymbolTableRecord
100
AcDbLinetypeTableRecord
  2
ByBlock
 70
     0
  3

 72
    65
 73
     0
 40
0.0
  0
LTYPE
  5
15
330
5
100
AcDbSymbolTableRecord
100
AcDbLinetypeTableRecord
  2
ByLayer
 70
     0
  3

 72
    65
 73
     0
 40
0.0
  0
LTYPE
  5
16
330
5
100
AcDbSymbolTableRecord
100
AcDbLinetypeTableRecord
  2
Continuous
 70
     0
  3
Solid line
 72
    65
 73
     0
 40
0.0
  0
LTYPE
  5
6E
330
5
100
AcDbSymbolTableRecord
100
AcDbLinetypeTableRecord
  2
DIVIDE
 70
     0
  3

 72
    65
 73
     6
 40
1.25
 49
0.5
 74
     0
 49
-0.25
 74
     0
 49
0.0
 74
     0
 49
-0.25
 74
     0
 49
0.0
 74
     0
 49
-0.25
 74
     0
  0
LTYPE
  5
6F
330
5
100
AcDbSymbolTableRecord
100
AcDbLinetypeTableRecord
  2
AUSGEZOGEN
 70
     0
  3

 72
    65
 73
     0
 40
0.0
  0
LTYPE
  5
70
330
5
100
AcDbSymbolTableRecord
100
AcDbLinetypeTableRecord
  2
DASHED
 70
     0
  3

 72
    65
 73
     2
 40
0.75
 49
0.5
 74
     0
 49
-0.25
 74
     0
  0
ENDTAB
  0
TABLE
  2
LAYER
  5
2
330
0
100
AcDbSymbolTable
 70
     2
  0
LAYER
  5
10
330
2
100
AcDbSymbolTableRecord
100
AcDbLayerTableRecord
  2
0
 70
     0
 62
     7
  6
Continuous
370
    -3
390
F
347
46
  0
LAYER
  5
72
330
2
100
AcDbSymbolTableRecord
100
AcDbLayerTableRecord
  2
FREI LASSEN
 70
     0
 62
    18
420
        0
  6
Continuous
370
    -3
390
F
347
46
  0
ENDTAB
  0
TABLE
  2
STYLE
  5
3
330
0
100
AcDbSymbolTable
 70
     2
  0
STYLE
  5
11
330
3
100
AcDbSymbolTableRecord
100
AcDbTextStyleTableRecord
  2
Standard
 70
     0
 40
0.0
 41
1.0
 50
0.0
 71
     0
 42
2.5
  3
txt
  4

  0
STYLE
  5
71
330
3
100
AcDbSymbolTableRecord
100
AcDbTextStyleTableRecord
  2
Toleranzfont
 70
     0
 40
0.0
 41
1.0
 50
0.0
 71
     0
 42
2.5
  3
IGES1003.SHX
  4

  0
ENDTAB
  0
TABLE
  2
VIEW
  5
6
330
0
100
AcDbSymbolTable
 70
     0
  0
ENDTAB
  0
TABLE
  2
UCS
  5
7
330
0
100
AcDbSymbolTable
 70
     0
  0
ENDTAB
  0
TABLE
  2
APPID
  5
9
330
0
100
AcDbSymbolTable
 70
     1
  0
APPID
  5
12
330
9
100
AcDbSymbolTableRecord
100
AcDbRegAppTableRecord
  2
ACAD
 70
     0
  0
ENDTAB
  0
TABLE
  2
DIMSTYLE
  5
A
330
0
100
AcDbSymbolTable
 70
     1
100
AcDbDimStyleTable
  0
DIMSTYLE
105
27
330
A
100
AcDbSymbolTableRecord
100
AcDbDimStyleTableRecord
  2
ISO-25
 70
     0
 41
2.5
 42
0.625
 43
3.75
 44
1.25
 73
     0
 74
     0
 77
     1
 78
     8
140
2.5
141
2.5
143
0.03937007874
147
0.625
171
     3
172
     1
178
     0
271
     2
272
     2
274
     3
278
    44
283
     0
284
     8
340
11
  0
ENDTAB
  0
TABLE
  2
BLOCK_RECORD
  5
1
330
0
100
AcDbSymbolTable
 70
     8
  0
BLOCK_RECORD
  5
1F
330
1
100
AcDbSymbolTableRecord
100
AcDbBlockTableRecord
  2
*Model_Space
340
22
 70
     0
280
     1
281
     0
  0
BLOCK_RECORD
  5
1B
330
1
100
AcDbSymbolTableRecord
100
AcDbBlockTableRecord
  2
*Paper_Space
340
1E
 70
     0
280
     1
281
     0
  0
BLOCK_RECORD
  5
23
330
1
100
AcDbSymbolTableRecord
100
AcDbBlockTableRecord
  2
*Paper_Space0
340
26
 70
     0
280
     1
281
     0
  0
BLOCK_RECORD
  5
A9
330
1
100
AcDbSymbolTableRecord
100
AcDbBlockTableRecord
  2
DICHTR114_nNn00
340
0
102
{BLKREFS
331
C6
102
}
 70
     0
280
     1
281
     0
  0
BLOCK_RECORD
  5
F1
330
1
100
AcDbSymbolTableRecord
100
AcDbBlockTableRecord
  2
Hintereinlauf_nNn01
340
0
102
{BLKREFS
331
100
102
}
 70
     0
280
     1
281
     0
  0
BLOCK_RECORD
  5
10B
330
1
100
AcDbSymbolTableRecord
100
AcDbBlockTableRecord
  2
Montagefuss Typ 200 G (25mm)_nNn02
340
0
102
{BLKREFS
331
10F
102
}
 70
     0
280
     1
281
     0
  0
BLOCK_RECORD
  5
122
330
1
100
AcDbSymbolTableRecord
100
AcDbBlockTableRecord
  2
Montagefuss Typ 200 G (25mm)_001_001_nNn03
340
0
102
{BLKREFS
331
130
102
}
 70
     0
280
     1
281
     0
  0
BLOCK_RECORD
  5
137
330
1
100
AcDbSymbolTableRecord
100
AcDbBlockTableRecord
  2
Montagefuss Typ 200 G (25mm)_001_001_nNn04
340
0
102
{BLKREFS
331
145
102
}
 70
     0
280
     1
281
     0
  0
BLOCK_RECORD
  5
14B
330
1
100
AcDbSymbolTableRecord
100
AcDbBlockTableRecord
  2
DICHTR114_nNn05
340
0
102
{BLKREFS
331
25E
102
}
 70
     0
280
     1
281
     0
  0
BLOCK_RECORD
  5
167
330
1
100
AcDbSymbolTableRecord
100
AcDbBlockTableRecord
  2
*X7
340
0
102
{BLKREFS
331
25D
102
}
 70
     0
280
     1
281
     0
  0
ENDTAB
  0
ENDSEC
  0
SECTION
  2
BLOCKS
  0
BLOCK
  5
20
330
1F
100
AcDbEntity
  8
0
100
AcDbBlockBegin
  2
*Model_Space
 70
     0
 10
0.0
 20
0.0
 30
0.0
  3
*Model_Space
  1

  0
ENDBLK
  5
21
330
1F
100
AcDbEntity
  8
0
100
AcDbBlockEnd
  0
BLOCK
  5
1C
330
1B
100
AcDbEntity
 67
     1
  8
0
100
AcDbBlockBegin
  2
*Paper_Space
 70
     0
 10
0.0
 20
0.0
 30
0.0
  3
*Paper_Space
  1

  0
ENDBLK
  5
1D
330
1B
100
AcDbEntity
 67
     1
  8
0
100
AcDbBlockEnd
  0
BLOCK
  5
24
330
23
100
AcDbEntity
  8
0
100
AcDbBlockBegin
  2
*Paper_Space0
 70
     0
 10
0.0
 20
0.0
 30
0.0
  3
*Paper_Space0
  1

  0
ENDBLK
  5
25
330
23
100
AcDbEntity
  8
0
100
AcDbBlockEnd
  0
BLOCK
  5
AA
330
A9
100
AcDbEntity
  8
0
100
AcDbBlockBegin
  2
DICHTR114_nNn00
 70
     0
 10
0.0
 20
0.0
 30
0.0
  3
DICHTR114_nNn00
  1

  0
LINE
  5
AC
330
A9
100
AcDbEntity
  8
FREI LASSEN
  6
AUSGEZOGEN
 62
    18
420
        0
370
    18
100
AcDbLine
 10
-273.681615803286
 20
3.104920814836
 30
0.0
 11
-267.837974468494
 21
3.104920814836
 31
0.0
  0
LINE
  5
AD
330
A9
100
AcDbEntity
  8
FREI LASSEN
  6
AUSGEZOGEN
 62
    18
420
        0
370
    18
100
AcDbLine
 10
-274.242913125801
 20
3.863414659386
 30
0.0
 11
-274.277131005028
 21
9.263306245033
 31
0.0
  0
LINE
  5
AE
330
A9
100
AcDbEntity
  8
FREI LASSEN
  6
AUSGEZOGEN
 62
    18
420
        0
370
    18
100
AcDbLine
 10
-267.818962368541
 20
0.104045474496
 30
0.0
 11
-268.689670829373
 21
0.098527993917
 31
0.0
  0
LINE
  5
AF
330
A9
100
AcDbEntity
  8
FREI LASSEN
  6
AUSGEZOGEN
 62
    18
420
        0
370
    18
100
AcDbLine
 10
-265.232382014894
 20
10.120636814574
 30
0.0
 11
-273.482216381855
 21
10.068359499088
 31
0.0
  0
LINE
  5
B0
330
A9
100
AcDbEntity
  8
FREI LASSEN
  6
AUSGEZOGEN
 62
    18
420
        0
370
    18
100
AcDbLine
 10
-267.818962368541
 20
0.104045474496
 30
0.0
 11
-267.837972301445
 21
3.1039852443
 31
0.0
  0
LINE
  5
B1
330
A9
100
AcDbEntity
  8
FREI LASSEN
  6
AUSGEZOGEN
 62
    18
420
        0
370
    18
100
AcDbLine
 10
-265.683451902448
 20
2.397437258459
 30
0.0
 11
-265.69245111743
 21
3.817594975835
 31
0.0
  0
LINE
  5
B2
330
A9
100
AcDbEntity
  8
FREI LASSEN
  6
AUSGEZOGEN
 62
    18
420
        0
370
    18
100
AcDbLine
 10
-265.194362149086
 20
4.120757274966
 30
0.0
 11
-265.39435813374
 21
4.119489946106
 31
0.0
  0
LINE
  5
B3
330
A9
100
AcDbEntity
  8
FREI LASSEN
  6
AUSGEZOGEN
 62
    18
420
        0
370
    18
100
AcDbLine
 10
-265.207035437689
 20
6.120717121502
 30
0.0
 11
-265.257034433852
 21
6.120400289287
 31
0.0
  0
LINE
  5
B4
330
A9
100
AcDbEntity
  8
FREI LASSEN
  6
AUSGEZOGEN
 62
    18
420
        0
370
    18
100
AcDbLine
 10
-265.219708726291
 20
8.120676968038
 30
0.0
 11
-265.269707722455
 21
8.120360135823
 31
0.0
  0
ARC
  5
B5
330
A9
100
AcDbEntity
  8
FREI LASSEN
  6
AUSGEZOGEN
 62
    18
420
        0
370
    18
100
AcDbCircle
 10
-265.226045370593
 20
9.120656891306
 30
0.0
 40
0.9999999999999998
100
AcDbArc
 50
0.363065404467
 51
90.363065404467
  0
ARC
  5
B6
330
A9
100
AcDbEntity
  8
FREI LASSEN
  6
AUSGEZOGEN
 62
    18
420
        0
370
    18
100
AcDbCircle
 10
-265.226045370593
 20
9.120656891306
 30
0.0
 40
0.9999999999999998
100
AcDbArc
 50
270.363065404467
 51
0.363065404467
  0
ARC
  5
B7
330
A9
100
AcDbEntity
  8
FREI LASSEN
  6
AUSGEZOGEN
 62
    18
420
        0
370
    18
100
AcDbCircle
 10
-265.200698793388
 20
5.120737198234
 30
0.0
 40
0.9999999999999998
100
AcDbArc
 50
0.363065404467
 51
90.363065404467
  0
ARC
  5
B8
330
A9
100
AcDbEntity
  8
FREI LASSEN
  6
AUSGEZOGEN
 62
    18
420
        0
370
    18
100
AcDbCircle
 10
-265.200698793388
 20
5.120737198234
 30
0.0
 40
0.9999999999999998
100
AcDbArc
 50
270.363065404467
 51
0.363065404467
  0
ARC
  5
B9
330
A9
100
AcDbEntity
  8
FREI LASSEN
  6
AUSGEZOGEN
 62
    18
420
        0
370
    18
100
AcDbCircle
 10
-265.263371078154
 20
7.120380212555
 30
0.0
 40
0.9999999999999998
100
AcDbArc
 50
90.363065404467
 51
180.363065404467
  0
ARC
  5
BA
330
A9
100
AcDbEntity
  8
FREI LASSEN
  6
AUSGEZOGEN
 62
    18
420
        0
370
    18
100
AcDbCircle
 10
-265.263371078154
 20
7.120380212555
 30
0.0
 40
0.9999999999999998
100
AcDbArc
 50
180.363065404467
 51
270.363065404467
  0
LINE
  5
BB
330
A9
100
AcDbEntity
  8
FREI LASSEN
  6
AUSGEZOGEN
 62
    18
420
        0
370
    18
100
AcDbLine
 10
-266.171412428699
 20
-2.885574609368
 30
0.0
 11
-267.032515731793
 21
-2.891031224257
 31
0.0
  0
ARC
  5
BC
330
A9
100
AcDbEntity
  8
FREI LASSEN
  6
AUSGEZOGEN
 62
    18
420
        0
370
    18
100
AcDbCircle
 10
-266.649975523879
 20
-2.888607154361
 30
0.0
 40
0.9999999999999998
100
AcDbArc
 50
210.363065404467
 51
345.363065404467
  0
LINE
  5
BD
330
A9
100
AcDbEntity
  8
FREI LASSEN
  6
AUSGEZOGEN
 62
    18
420
        0
370
    18
100
AcDbLine
 10
-267.512815218553
 20
-3.394084810935
 30
0.0
 11
-269.11792235456
 21
-0.654200796004
 31
0.0
  0
LINE
  5
BE
330
A9
100
AcDbEntity
  8
FREI LASSEN
  6
AUSGEZOGEN
 62
    18
420
        0
370
    18
100
AcDbLine
 10
-265.682429045997
 20
-3.141300274841
 30
0.0
 11
-264.636000371654
 21
0.865411013124
 31
0.0
  0
ARC
  5
BF
330
A9
100
AcDbEntity
  8
FREI LASSEN
  6
AUSGEZOGEN
 62
    18
420
        0
370
    18
100
AcDbCircle
 10
-265.603546849536
 20
1.118104133603
 30
0.0
 40
0.9999999999999998
100
AcDbArc
 50
345.363065404467
 51
80.252926032669
  0
ARC
  5
C0
330
A9
100
AcDbEntity
  8
FREI LASSEN
  6
AUSGEZOGEN
 62
    18
420
        0
370
    18
100
AcDbCircle
 10
-268.686502507223
 20
-0.401461967717
 30
0.0
 40
0.4999999999999999
100
AcDbArc
 50
90.363065404467
 51
210.363065404467
  0
ARC
  5
C1
330
A9
100
AcDbEntity
  8
FREI LASSEN
  6
AUSGEZOGEN
 62
    18
420
        0
370
    18
100
AcDbCircle
 10
-273.442929187187
 20
3.868483974827
 30
0.0
 40
0.7999999999999999
100
AcDbArc
 50
180.363065404467
 51
270.363065404467
  0
ARC
  5
C2
330
A9
100
AcDbEntity
  8
FREI LASSEN
  6
AUSGEZOGEN
 62
    18
420
        0
370
    18
100
AcDbCircle
 10
-273.477147066414
 20
9.268375560474
 30
0.0
 40
0.7999999999999999
100
AcDbArc
 50
90.363065404467
 51
180.363065404467
  0
ARC
  5
C3
330
A9
100
AcDbEntity
  8
FREI LASSEN
  6
AUSGEZOGEN
 62
    18
420
        0
370
    18
100
AcDbCircle
 10
-265.392457140449
 20
3.819495969126
 30
0.0
 40
0.2999999999999999
100
AcDbArc
 50
90.363065404467
 51
180.363065404467
  0
ARC
  5
C4
330
A9
100
AcDbEntity
  8
FREI LASSEN
  6
AUSGEZOGEN
 62
    18
420
        0
370
    18
100
AcDbCircle
 10
-265.383457925468
 20
2.39933825175
 30
0.0
 40
0.2999999999999999
100
AcDbArc
 50
180.363065404467
 51
260.252926032668
  0
HATCH
  5
C5
330
A9
100
AcDbEntity
  8
FREI LASSEN
  6
AUSGEZOGEN
 62
    18
420
        0
370
    18
100
AcDbHatch
 10
0.0
 20
0.0
 30
0.0
210
0.0
220
0.0
230
1.0
  2
MegaCAD_Biegsam
 70
     0
 71
     0
 91
        1
 92
        2
 72
     1
 73
     1
 93
       24
 10
-273.4378598717455
 20
3.068500036212441
 42
-0.4142135623730595
 10
-274.2429131258011
 20
3.863414659385711
 42
0.0
 10
-274.2771310050281
 20
9.263306245032737
 42
-0.4142135623730892
 10
-273.4822163818548
 20
10.06835949908813
 42
0.0
 10
-265.2323820148942
 20
10.12063681457408
 42
-0.4142135623731069
 10
-264.226065447325
 20
9.126993535607426
 42
-0.4142135623731182
 10
-265.2197087262915
 20
8.120676968038083
 42
0.0
 10
-265.2697077224549
 20
8.120360135823091
 42
0.4142135623730774
 10
-266.2633510014217
 20
7.114043568253777
 42
0.4142135623730594
 10
-265.2570344338522
 20
6.120400289287119
 42
0.0
 10
-265.2070354376888
 20
6.120717121502224
 42
-0.4142135623731069
 10
-264.2007188701196
 20
5.127073842535566
 42
-0.4142135623731126
 10
-265.1943621490862
 20
4.120757274966309
 42
0.0
 10
-265.3943581337398
 20
4.119489946106
 42
0.4142135623730641
 10
-265.6924511174298
 20
3.81759497583522
 42
0.0
 10
-265.6834519024482
 20
2.39743725845949
 42
0.3634260920586974
 10
-265.4342476771758
 20
2.103668839869954
 42
-0.4394370349333694
 10
-264.6360003716539
 20
0.8654110131242021
 42
0.0
 10
-265.6824290459967
 20
-3.141300274840688
 42
-0.6681786379193313
 10
-267.5128152185527
 20
-3.394084810935112
 42
0.0
 10
-269.1179223545597
 20
-0.6542007960042895
 42
-0.577350269189605
 10
-268.6896708293734
 20
0.098527993916548
 42
0.0
 10
-267.818962368541
 20
0.1040454744959334
 42
0.0
 10
-267.8379723014449
 20
3.103985244299821
 42
0.0
 97
        0
 75
     0
 76
     1
 52
-179.636934595533
 41
0.3
 77
     0
 78
     2
 53
-179.6369345955333
 43
0.0
 44
0.0
 45
0.0047524832259888
 46
-0.7499849424509711
 79
     2
 49
0.7499999999999998
 49
-0.7499999999999998
 53
-134.6369345955333
 43
-0.749984942450971
 44
-0.0047524832259888
 45
0.0047524833524345
 46
-0.7499849624052501
 79
     4
 49
0.2121321
 49
-0.6363959999999999
 49
0.2121321
 49
-1.0606602
 98
        0
  0
ENDBLK
  5
AB
330
A9
100
AcDbEntity
  8
0
100
AcDbBlockEnd
  0
BLOCK
  5
F2
330
F1
100
AcDbEntity
  8
0
100
AcDbBlockBegin
  2
Hintereinlauf_nNn01
 70
     0
 10
0.0
 20
0.0
 30
0.0
  3
Hintereinlauf_nNn01
  1

  0
LINE
  5
F4
330
F1
100
AcDbEntity
  8
FREI LASSEN
  6
AUSGEZOGEN
 62
    18
420
        0
370
    18
100
AcDbLine
 10
-147.876979373675
 20
3.059244770658
 30
0.0
 11
-57.876979373675
 21
3.059244770658
 31
0.0
  0
LINE
  5
F5
330
F1
100
AcDbEntity
  8
FREI LASSEN
  6
AUSGEZOGEN
 62
    18
420
        0
370
    18
100
AcDbLine
 10
-147.876979373675
 20
0.059244770658
 30
0.0
 11
-57.876979373675
 21
0.059244770658
 31
0.0
  0
LINE
  5
F6
330
F1
100
AcDbEntity
  8
FREI LASSEN
  6
AUSGEZOGEN
 62
    18
420
        0
370
    18
100
AcDbLine
 10
-147.876979373675
 20
0.059244770658
 30
0.0
 11
-147.876979373675
 21
3.059244770658
 31
0.0
  0
LINE
  5
F7
330
F1
100
AcDbEntity
  8
FREI LASSEN
  6
AUSGEZOGEN
 62
    18
420
        0
370
    18
100
AcDbLine
 10
-145.639381849716
 20
-99.940755229342
 30
0.0
 11
-143.376979373675
 21
-99.940755229342
 31
0.0
  0
LINE
  5
F8
330
F1
100
AcDbEntity
  8
FREI LASSEN
  6
AUSGEZOGEN
 62
    18
420
        0
370
    18
100
AcDbLine
 10
-145.376979373675
 20
-99.454289135567
 30
0.0
 11
-145.376979373675
 21
0.059244770658
 31
0.0
  0
LINE
  5
F9
330
F1
100
AcDbEntity
  8
FREI LASSEN
  6
AUSGEZOGEN
 62
    18
420
        0
370
    18
100
AcDbLine
 10
-143.376979373675
 20
-3.940755229342
 30
0.0
 11
-139.376979373675
 21
0.059244770658
 31
0.0
  0
LINE
  5
FA
330
F1
100
AcDbEntity
  8
FREI LASSEN
  6
AUSGEZOGEN
 62
    18
420
        0
370
    18
100
AcDbLine
 10
-143.376979373675
 20
-13.794918813414
 30
0.0
 11
-117.374015748031
 21
-13.794918813414
 31
0.0
  0
LINE
  5
FB
330
F1
100
AcDbEntity
  8
FREI LASSEN
  6
AUSGEZOGEN
 62
    18
420
        0
370
    18
100
AcDbLine
 10
-143.376979373675
 20
-80.094918813414
 30
0.0
 11
-117.374015748031
 21
-80.094918813414
 31
0.0
  0
LINE
  5
FC
330
F1
100
AcDbEntity
  8
FREI LASSEN
  6
AUSGEZOGEN
 62
    18
420
        0
370
    18
100
AcDbLine
 10
-143.376979373675
 20
-77.367646086141
 30
0.0
 11
-117.374015748031
 21
-77.367646086141
 31
0.0
  0
LINE
  5
FD
330
F1
100
AcDbEntity
  8
FREI LASSEN
  6
AUSGEZOGEN
 62
    18
420
        0
370
    18
100
AcDbLine
 10
-143.376979373675
 20
-16.522191540686
 30
0.0
 11
-117.374015748031
 21
-16.522191540686
 31
0.0
  0
LINE
  5
FE
330
F1
100
AcDbEntity
  8
FREI LASSEN
  6
AUSGEZOGEN
 62
    18
420
        0
370
    18
100
AcDbLine
 10
-145.376979373675
 20
-76.004009722504
 30
0.0
 11
-117.374015748031
 21
-76.004009722504
 31
0.0
  0
LINE
  5
FF
330
F1
100
AcDbEntity
  8
FREI LASSEN
  6
AUSGEZOGEN
 62
    18
420
        0
370
    18
100
AcDbLine
 10
-145.376979373675
 20
-17.885827904323
 30
0.0
 11
-117.374015748031
 21
-17.885827904323
 31
0.0
  0
ENDBLK
  5
F3
330
F1
100
AcDbEntity
  8
0
100
AcDbBlockEnd
  0
BLOCK
  5
10C
330
10B
100
AcDbEntity
  8
0
100
AcDbBlockBegin
  2
Montagefuss Typ 200 G (25mm)_nNn02
 70
     0
 10
0.0
 20
0.0
 30
0.0
  3
Montagefuss Typ 200 G (25mm)_nNn02
  1

  0
LINE
  5
10E
330
10B
100
AcDbEntity
  8
FREI LASSEN
  6
AUSGEZOGEN
 62
    18
420
        0
370
    18
100
AcDbLine
 10
-148.672135139547
 20
87.181106019562
 30
0.0
 11
-139.866366293563
 21
87.181106019562
 31
0.0
  0
ENDBLK
  5
10D
330
10B
100
AcDbEntity
  8
0
100
AcDbBlockEnd
  0
BLOCK
  5
123
330
122
100
AcDbEntity
  8
0
100
AcDbBlockBegin
  2
Montagefuss Typ 200 G (25mm)_001_001_nNn03
 70
     0
 10
0.0
 20
0.0
 30
0.0
  3
Montagefuss Typ 200 G (25mm)_001_001_nNn03
  1

  0
LINE
  5
125
330
122
100
AcDbEntity
  8
FREI LASSEN
  6
AUSGEZOGEN
 62
    18
420
        0
370
    18
100
AcDbLine
 10
-272.461827273129
 20
85.892290488912
 30
0.0
 11
-290.717641226617
 21
85.892290488912
 31
0.0
  0
LINE
  5
126
330
122
100
AcDbEntity
  8
FREI LASSEN
  6
AUSGEZOGEN
 62
    18
420
        0
370
    18
100
AcDbLine
 10
-291.299036575454
 20
63.799267233098
 30
0.0
 11
-291.299036575454
 21
85.310895140075
 31
0.0
  0
LINE
  5
127
330
122
100
AcDbEntity
  8
FREI LASSEN
  6
AUSGEZOGEN
 62
    18
420
        0
370
    18
100
AcDbLine
 10
-293.043222621966
 20
62.055081186586
 30
0.0
 11
-316.299036575454
 21
62.055081186586
 31
0.0
  0
LINE
  5
128
330
122
100
AcDbEntity
  8
FREI LASSEN
  6
AUSGEZOGEN
 62
    18
420
        0
370
    18
100
AcDbLine
 10
-293.043222621966
 20
63.217871884261
 30
0.0
 11
-316.299036575454
 21
63.217871884261
 31
0.0
  0
LINE
  5
129
330
122
100
AcDbEntity
  8
FREI LASSEN
  6
AUSGEZOGEN
 62
    18
420
        0
370
    18
100
AcDbLine
 10
-292.461827273129
 20
63.799267233098
 30
0.0
 11
-292.461827273129
 21
85.310895140075
 31
0.0
  0
LINE
  5
12A
330
122
100
AcDbEntity
  8
FREI LASSEN
  6
AUSGEZOGEN
 62
    18
420
        0
370
    18
100
AcDbLine
 10
-272.461827273129
 20
87.055081186586
 30
0.0
 11
-290.717641226617
 21
87.055081186586
 31
0.0
  0
LINE
  5
12B
330
122
100
AcDbEntity
  8
FREI LASSEN
  6
AUSGEZOGEN
 62
    18
420
        0
370
    18
100
AcDbLine
 10
-272.461827273129
 20
85.892290488912
 30
0.0
 11
-272.461827273129
 21
87.055081186586
 31
0.0
  0
ARC
  5
12C
330
122
100
AcDbEntity
  8
FREI LASSEN
  6
AUSGEZOGEN
 62
    18
420
        0
370
    18
100
AcDbCircle
 10
-290.717641226617
 20
85.310895140075
 30
0.0
 40
0.5813953488372094
100
AcDbArc
 50
90.0
 51
180.0
  0
ARC
  5
12D
330
122
100
AcDbEntity
  8
FREI LASSEN
  6
AUSGEZOGEN
 62
    18
420
        0
370
    18
100
AcDbCircle
 10
-293.043222621966
 20
63.799267233098
 30
0.0
 40
0.5813953488372094
100
AcDbArc
 50
270.0
 51
0.0
  0
ARC
  5
12E
330
122
100
AcDbEntity
  8
FREI LASSEN
  6
AUSGEZOGEN
 62
    18
420
        0
370
    18
100
AcDbCircle
 10
-290.717641226617
 20
85.310895140075
 30
0.0
 40
1.744186046511628
100
AcDbArc
 50
90.0
 51
180.0
  0
ARC
  5
12F
330
122
100
AcDbEntity
  8
FREI LASSEN
  6
AUSGEZOGEN
 62
    18
420
        0
370
    18
100
AcDbCircle
 10
-293.043222621966
 20
63.799267233098
 30
0.0
 40
1.744186046511628
100
AcDbArc
 50
270.0
 51
0.0
  0
ENDBLK
  5
124
330
122
100
AcDbEntity
  8
0
100
AcDbBlockEnd
  0
BLOCK
  5
138
330
137
100
AcDbEntity
  8
0
100
AcDbBlockBegin
  2
Montagefuss Typ 200 G (25mm)_001_001_nNn04
 70
     0
 10
0.0
 20
0.0
 30
0.0
  3
Montagefuss Typ 200 G (25mm)_001_001_nNn04
  1

  0
LINE
  5
13A
330
137
100
AcDbEntity
  8
FREI LASSEN
  6
AUSGEZOGEN
 62
    18
420
        0
370
    18
100
AcDbLine
 10
-143.286204222934
 20
85.892290488912
 30
0.0
 11
-125.030390269446
 21
85.892290488912
 31
0.0
  0
LINE
  5
13B
330
137
100
AcDbEntity
  8
FREI LASSEN
  6
AUSGEZOGEN
 62
    18
420
        0
370
    18
100
AcDbLine
 10
-124.448994920609
 20
63.799267233098
 30
0.0
 11
-124.448994920609
 21
85.310895140075
 31
0.0
  0
LINE
  5
13C
330
137
100
AcDbEntity
  8
FREI LASSEN
  6
AUSGEZOGEN
 62
    18
420
        0
370
    18
100
AcDbLine
 10
-122.704808874097
 20
62.055081186586
 30
0.0
 11
-99.448994920608
 21
62.055081186586
 31
0.0
  0
LINE
  5
13D
330
137
100
AcDbEntity
  8
FREI LASSEN
  6
AUSGEZOGEN
 62
    18
420
        0
370
    18
100
AcDbLine
 10
-122.704808874097
 20
63.217871884261
 30
0.0
 11
-99.448994920608
 21
63.217871884261
 31
0.0
  0
LINE
  5
13E
330
137
100
AcDbEntity
  8
FREI LASSEN
  6
AUSGEZOGEN
 62
    18
420
        0
370
    18
100
AcDbLine
 10
-123.286204222934
 20
63.799267233098
 30
0.0
 11
-123.286204222934
 21
85.310895140075
 31
0.0
  0
LINE
  5
13F
330
137
100
AcDbEntity
  8
FREI LASSEN
  6
AUSGEZOGEN
 62
    18
420
        0
370
    18
100
AcDbLine
 10
-143.286204222934
 20
87.055081186586
 30
0.0
 11
-125.030390269446
 21
87.055081186586
 31
0.0
  0
LINE
  5
140
330
137
100
AcDbEntity
  8
FREI LASSEN
  6
AUSGEZOGEN
 62
    18
420
        0
370
    18
100
AcDbLine
 10
-143.286204222934
 20
85.892290488912
 30
0.0
 11
-143.286204222934
 21
87.055081186586
 31
0.0
  0
ARC
  5
141
330
137
100
AcDbEntity
  8
FREI LASSEN
  6
AUSGEZOGEN
 62
    18
420
        0
370
    18
100
AcDbCircle
 10
-125.030390269446
 20
85.310895140075
 30
0.0
 40
0.5813953488372094
100
AcDbArc
 50
0.0
 51
90.0
  0
ARC
  5
142
330
137
100
AcDbEntity
  8
FREI LASSEN
  6
AUSGEZOGEN
 62
    18
420
        0
370
    18
100
AcDbCircle
 10
-122.704808874097
 20
63.799267233098
 30
0.0
 40
0.5813953488372094
100
AcDbArc
 50
180.0
 51
270.0
  0
ARC
  5
143
330
137
100
AcDbEntity
  8
FREI LASSEN
  6
AUSGEZOGEN
 62
    18
420
        0
370
    18
100
AcDbCircle
 10
-125.030390269446
 20
85.310895140075
 30
0.0
 40
1.744186046511628
100
AcDbArc
 50
0.0
 51
90.0
  0
ARC
  5
144
330
137
100
AcDbEntity
  8
FREI LASSEN
  6
AUSGEZOGEN
 62
    18
420
        0
370
    18
100
AcDbCircle
 10
-122.704808874097
 20
63.799267233098
 30
0.0
 40
1.744186046511628
100
AcDbArc
 50
180.0
 51
270.0
  0
ENDBLK
  5
139
330
137
100
AcDbEntity
  8
0
100
AcDbBlockEnd
  0
BLOCK
  5
14C
330
14B
100
AcDbEntity
  8
0
100
AcDbBlockBegin
  2
DICHTR114_nNn05
 70
     0
 10
0.0
 20
0.0
 30
0.0
  3
DICHTR114_nNn05
  1

  0
LINE
  5
14E
330
14B
100
AcDbEntity
  8
FREI LASSEN
  6
AUSGEZOGEN
 62
    18
420
        0
370
    18
100
AcDbLine
 10
-142.066415692777
 20
3.104920814836
 30
0.0
 11
-147.910057027569
 21
3.104920814836
 31
0.0
  0
LINE
  5
14F
330
14B
100
AcDbEntity
  8
FREI LASSEN
  6
AUSGEZOGEN
 62
    18
420
        0
370
    18
100
AcDbLine
 10
-141.505118370262
 20
3.863414659386
 30
0.0
 11
-141.470900491035
 21
9.263306245033
 31
0.0
  0
LINE
  5
150
330
14B
100
AcDbEntity
  8
FREI LASSEN
  6
AUSGEZOGEN
 62
    18
420
        0
370
    18
100
AcDbLine
 10
-147.929069127522
 20
0.104045474496
 30
0.0
 11
-147.058360666689
 21
0.098527993917
 31
0.0
  0
LINE
  5
151
330
14B
100
AcDbEntity
  8
FREI LASSEN
  6
AUSGEZOGEN
 62
    18
420
        0
370
    18
100
AcDbLine
 10
-150.515649481169
 20
10.120636814574
 30
0.0
 11
-142.265815114208
 21
10.068359499088
 31
0.0
  0
LINE
  5
152
330
14B
100
AcDbEntity
  8
FREI LASSEN
  6
AUSGEZOGEN
 62
    18
420
        0
370
    18
100
AcDbLine
 10
-147.929069127522
 20
0.104045474496
 30
0.0
 11
-147.910059194618
 21
3.1039852443
 31
0.0
  0
LINE
  5
153
330
14B
100
AcDbEntity
  8
FREI LASSEN
  6
AUSGEZOGEN
 62
    18
420
        0
370
    18
100
AcDbLine
 10
-150.064579593615
 20
2.397437258459
 30
0.0
 11
-150.055580378633
 21
3.817594975835
 31
0.0
  0
LINE
  5
154
330
14B
100
AcDbEntity
  8
FREI LASSEN
  6
AUSGEZOGEN
 62
    18
420
        0
370
    18
100
AcDbLine
 10
-150.553669346977
 20
4.120757274966
 30
0.0
 11
-150.353673362323
 21
4.119489946106
 31
0.0
  0
LINE
  5
155
330
14B
100
AcDbEntity
  8
FREI LASSEN
  6
AUSGEZOGEN
 62
    18
420
        0
370
    18
100
AcDbLine
 10
-150.540996058374
 20
6.120717121502
 30
0.0
 11
-150.490997062211
 21
6.120400289287
 31
0.0
  0
LINE
  5
156
330
14B
100
AcDbEntity
  8
FREI LASSEN
  6
AUSGEZOGEN
 62
    18
420
        0
370
    18
100
AcDbLine
 10
-150.528322769771
 20
8.120676968038
 30
0.0
 11
-150.478323773608
 21
8.120360135823
 31
0.0
  0
ARC
  5
157
330
14B
100
AcDbEntity
  8
FREI LASSEN
  6
AUSGEZOGEN
 62
    18
420
        0
370
    18
100
AcDbCircle
 10
-150.52198612547
 20
9.120656891306
 30
0.0
 40
0.9999999999999998
100
AcDbArc
 50
89.636934595533
 51
179.636934595533
  0
ARC
  5
158
330
14B
100
AcDbEntity
  8
FREI LASSEN
  6
AUSGEZOGEN
 62
    18
420
        0
370
    18
100
AcDbCircle
 10
-150.52198612547
 20
9.120656891306
 30
0.0
 40
0.9999999999999998
100
AcDbArc
 50
179.636934595533
 51
269.636934595533
  0
ARC
  5
159
330
14B
100
AcDbEntity
  8
FREI LASSEN
  6
AUSGEZOGEN
 62
    18
420
        0
370
    18
100
AcDbCircle
 10
-150.547332702675
 20
5.120737198234
 30
0.0
 40
0.9999999999999998
100
AcDbArc
 50
89.636934595533
 51
179.636934595533
  0
ARC
  5
15A
330
14B
100
AcDbEntity
  8
FREI LASSEN
  6
AUSGEZOGEN
 62
    18
420
        0
370
    18
100
AcDbCircle
 10
-150.547332702675
 20
5.120737198234
 30
0.0
 40
0.9999999999999998
100
AcDbArc
 50
179.636934595533
 51
269.636934595533
  0
ARC
  5
15B
330
14B
100
AcDbEntity
  8
FREI LASSEN
  6
AUSGEZOGEN
 62
    18
420
        0
370
    18
100
AcDbCircle
 10
-150.484660417909
 20
7.120380212555
 30
0.0
 40
0.9999999999999998
100
AcDbArc
 50
359.636934595533
 51
89.636934595533
  0
ARC
  5
15C
330
14B
100
AcDbEntity
  8
FREI LASSEN
  6
AUSGEZOGEN
 62
    18
420
        0
370
    18
100
AcDbCircle
 10
-150.484660417909
 20
7.120380212555
 30
0.0
 40
0.9999999999999998
100
AcDbArc
 50
269.636934595533
 51
359.636934595533
  0
LINE
  5
15D
330
14B
100
AcDbEntity
  8
FREI LASSEN
  6
AUSGEZOGEN
 62
    18
420
        0
370
    18
100
AcDbLine
 10
-149.576619067364
 20
-2.885574609368
 30
0.0
 11
-148.71551576427
 21
-2.891031224257
 31
0.0
  0
ARC
  5
15E
330
14B
100
AcDbEntity
  8
FREI LASSEN
  6
AUSGEZOGEN
 62
    18
420
        0
370
    18
100
AcDbCircle
 10
-149.098055972184
 20
-2.888607154361
 30
0.0
 40
0.9999999999999998
100
AcDbArc
 50
194.636934595533
 51
329.636934595533
  0
LINE
  5
15F
330
14B
100
AcDbEntity
  8
FREI LASSEN
  6
AUSGEZOGEN
 62
    18
420
        0
370
    18
100
AcDbLine
 10
-148.23521627751
 20
-3.394084810935
 30
0.0
 11
-146.630109141503
 21
-0.654200796004
 31
0.0
  0
LINE
  5
160
330
14B
100
AcDbEntity
  8
FREI LASSEN
  6
AUSGEZOGEN
 62
    18
420
        0
370
    18
100
AcDbLine
 10
-150.065602450066
 20
-3.141300274841
 30
0.0
 11
-151.112031124409
 21
0.865411013124
 31
0.0
  0
ARC
  5
161
330
14B
100
AcDbEntity
  8
FREI LASSEN
  6
AUSGEZOGEN
 62
    18
420
        0
370
    18
100
AcDbCircle
 10
-150.144484646527
 20
1.118104133603
 30
0.0
 40
0.9999999999999998
100
AcDbArc
 50
99.747073967331
 51
194.636934595533
  0
ARC
  5
162
330
14B
100
AcDbEntity
  8
FREI LASSEN
  6
AUSGEZOGEN
 62
    18
420
        0
370
    18
100
AcDbCircle
 10
-147.06152898884
 20
-0.401461967717
 30
0.0
 40
0.4999999999999999
100
AcDbArc
 50
329.636934595533
 51
89.636934595533
  0
ARC
  5
163
330
14B
100
AcDbEntity
  8
FREI LASSEN
  6
AUSGEZOGEN
 62
    18
420
        0
370
    18
100
AcDbCircle
 10
-142.305102308876
 20
3.868483974827
 30
0.0
 40
0.7999999999999999
100
AcDbArc
 50
269.636934595533
 51
359.636934595533
  0
ARC
  5
164
330
14B
100
AcDbEntity
  8
FREI LASSEN
  6
AUSGEZOGEN
 62
    18
420
        0
370
    18
100
AcDbCircle
 10
-142.270884429649
 20
9.268375560474
 30
0.0
 40
0.7999999999999999
100
AcDbArc
 50
359.636934595533
 51
89.636934595533
  0
ARC
  5
165
330
14B
100
AcDbEntity
  8
FREI LASSEN
  6
AUSGEZOGEN
 62
    18
420
        0
370
    18
100
AcDbCircle
 10
-150.355574355613
 20
3.819495969126
 30
0.0
 40
0.2999999999999999
100
AcDbArc
 50
359.636934595533
 51
89.636934595533
  0
ARC
  5
166
330
14B
100
AcDbEntity
  8
FREI LASSEN
  6
AUSGEZOGEN
 62
    18
420
        0
370
    18
100
AcDbCircle
 10
-150.364573570595
 20
2.39933825175
 30
0.0
 40
0.2999999999999999
100
AcDbArc
 50
279.747073967332
 51
359.636934595533
  0
INSERT
  5
25D
330
14B
100
AcDbEntity
  8
0
100
AcDbBlockReference
  2
*X7
 10
0.0
 20
0.0
 30
0.0
  0
ENDBLK
  5
14D
330
14B
100
AcDbEntity
  8
0
100
AcDbBlockEnd
  0
BLOCK
  5
168
330
167
100
AcDbEntity
  8
0
100
AcDbBlockBegin
  2
*X7
 70
     1
 10
0.0
 20
0.0
 30
0.0
  3
*X7
  1

  0
LINE
  5
16A
330
167
100
AcDbEntity
  8
FREI LASSEN
  6
AUSGEZOGEN
 62
    18
420
        0
370
    18
100
AcDbLine
 10
-149.611332789993
 20
-3.746830265388
 30
0.0
 11
-149.090233743867
 21
-3.750132350984
 31
0.0
  0
LINE
  5
16B
330
167
100
AcDbEntity
  8
FREI LASSEN
  6
AUSGEZOGEN
 62
    18
420
        0
370
    18
100
AcDbLine
 10
-149.835466203092
 20
-2.995394925307
 30
0.0
 11
-149.085481260641
 21
-3.000147408533
 31
0.0
  0
LINE
  5
16C
330
167
100
AcDbEntity
  8
FREI LASSEN
  6
AUSGEZOGEN
 62
    18
420
        0
370
    18
100
AcDbLine
 10
-148.33549631819
 20
-3.004899891759
 30
0.0
 11
-148.008434095036
 21
-3.006972410341
 31
0.0
  0
LINE
  5
16D
330
167
100
AcDbEntity
  8
FREI LASSEN
  6
AUSGEZOGEN
 62
    18
420
        0
370
    18
100
AcDbLine
 10
-149.830713719866
 20
-2.245409982856
 30
0.0
 11
-149.080728777415
 21
-2.250162466082
 31
0.0
  0
LINE
  5
16E
330
167
100
AcDbEntity
  8
FREI LASSEN
  6
AUSGEZOGEN
 62
    18
420
        0
370
    18
100
AcDbLine
 10
-148.330743834964
 20
-2.254914949308
 30
0.0
 11
-147.580758892513
 21
-2.259667432534
 31
0.0
  0
LINE
  5
16F
330
167
100
AcDbEntity
  8
FREI LASSEN
  6
AUSGEZOGEN
 62
    18
420
        0
370
    18
100
AcDbLine
 10
-149.82596123664
 20
-1.495425040405
 30
0.0
 11
-149.075976294189
 21
-1.500177523631
 31
0.0
  0
LINE
  5
170
330
167
100
AcDbEntity
  8
FREI LASSEN
  6
AUSGEZOGEN
 62
    18
420
        0
370
    18
100
AcDbLine
 10
-148.325991351738
 20
-1.504930006857
 30
0.0
 11
-147.576006409287
 21
-1.509682490083
 31
0.0
  0
LINE
  5
171
330
167
100
AcDbEntity
  8
FREI LASSEN
  6
AUSGEZOGEN
 62
    18
420
        0
370
    18
100
AcDbLine
 10
-150.692769197951
 20
-0.739917218548
 30
0.0
 11
-150.571193695865
 21
-0.740687614728
 31
0.0
  0
LINE
  5
172
330
167
100
AcDbEntity
  8
FREI LASSEN
  6
AUSGEZOGEN
 62
    18
420
        0
370
    18
100
AcDbLine
 10
-149.821208753414
 20
-0.745440097954
 30
0.0
 11
-149.071223810963
 21
-0.75019258118
 31
0.0
  0
LINE
  5
173
330
167
100
AcDbEntity
  8
FREI LASSEN
  6
AUSGEZOGEN
 62
    18
420
        0
370
    18
100
AcDbLine
 10
-148.321238868512
 20
-0.754945064406
 30
0.0
 11
-147.571253926061
 21
-0.759697547632
 31
0.0
  0
LINE
  5
174
330
167
100
AcDbEntity
  8
FREI LASSEN
  6
AUSGEZOGEN
 62
    18
420
        0
370
    18
100
AcDbLine
 10
-146.82126898361
 20
-0.764450030858
 30
0.0
 11
-146.695164620122
 21
-0.765249125397
 31
0.0
  0
LINE
  5
175
330
167
100
AcDbEntity
  8
FREI LASSEN
  6
AUSGEZOGEN
 62
    18
420
        0
370
    18
100
AcDbLine
 10
-150.88897457439
 20
0.011341147945
 30
0.0
 11
-150.566441212639
 21
0.009297327723
 31
0.0
  0
LINE
  5
176
330
167
100
AcDbEntity
  8
FREI LASSEN
  6
AUSGEZOGEN
 62
    18
420
        0
370
    18
100
AcDbLine
 10
-149.816456270188
 20
0.004544844497
 30
0.0
 11
-149.066471327737
 21
-0.000207638729
 31
0.0
  0
LINE
  5
177
330
167
100
AcDbEntity
  8
FREI LASSEN
  6
AUSGEZOGEN
 62
    18
420
        0
370
    18
100
AcDbLine
 10
-148.316486385286
 20
-0.004960121955
 30
0.0
 11
-147.566501442835
 21
-0.009712605181
 31
0.0
  0
LINE
  5
178
330
167
100
AcDbEntity
  8
FREI LASSEN
  6
AUSGEZOGEN
 62
    18
420
        0
370
    18
100
AcDbLine
 10
-146.816516500384
 20
-0.014465088407
 30
0.0
 11
-146.74437439539
 21
-0.014922236443
 31
0.0
  0
LINE
  5
179
330
167
100
AcDbEntity
  8
FREI LASSEN
  6
AUSGEZOGEN
 62
    18
420
        0
370
    18
100
AcDbLine
 10
-151.085179950829
 20
0.762599514438
 30
0.0
 11
-150.561688729413
 21
0.759282270174
 31
0.0
  0
LINE
  5
17A
330
167
100
AcDbEntity
  8
FREI LASSEN
  6
AUSGEZOGEN
 62
    18
420
        0
370
    18
100
AcDbLine
 10
-149.811703786962
 20
0.754529786948
 30
0.0
 11
-149.061718844511
 21
0.749777303722
 31
0.0
  0
LINE
  5
17B
330
167
100
AcDbEntity
  8
FREI LASSEN
  6
AUSGEZOGEN
 62
    18
420
        0
370
    18
100
AcDbLine
 10
-148.31173390206
 20
0.745024820496
 30
0.0
 11
-147.925022916109
 21
0.742574321333
 31
0.0
  0
LINE
  5
17C
330
167
100
AcDbEntity
  8
FREI LASSEN
  6
AUSGEZOGEN
 62
    18
420
        0
370
    18
100
AcDbLine
 10
-151.063435251786
 20
1.5124767811
 30
0.0
 11
-150.556936246187
 21
1.509267212625
 31
0.0
  0
LINE
  5
17D
330
167
100
AcDbEntity
  8
FREI LASSEN
  6
AUSGEZOGEN
 62
    18
420
        0
370
    18
100
AcDbLine
 10
-149.806951303736
 20
1.504514729399
 30
0.0
 11
-149.056966361285
 21
1.499762246173
 31
0.0
  0
LINE
  5
17E
330
167
100
AcDbEntity
  8
FREI LASSEN
  6
AUSGEZOGEN
 62
    18
420
        0
370
    18
100
AcDbLine
 10
-148.306981418834
 20
1.495009762947
 30
0.0
 11
-147.920270432882
 21
1.492559263784
 31
0.0
  0
LINE
  5
17F
330
167
100
AcDbEntity
  8
FREI LASSEN
  6
AUSGEZOGEN
 62
    18
420
        0
370
    18
100
AcDbLine
 10
-149.80219882051
 20
2.25449967185
 30
0.0
 11
-149.052213878059
 21
2.249747188624
 31
0.0
  0
LINE
  5
180
330
167
100
AcDbEntity
  8
FREI LASSEN
  6
AUSGEZOGEN
 62
    18
420
        0
370
    18
100
AcDbLine
 10
-148.302228935608
 20
2.244994705398
 30
0.0
 11
-147.915517949657
 21
2.242544206235
 31
0.0
  0
LINE
  5
181
330
167
100
AcDbEntity
  8
FREI LASSEN
  6
AUSGEZOGEN
 62
    18
420
        0
370
    18
100
AcDbLine
 10
-149.797446337284
 20
3.004484614301
 30
0.0
 11
-149.047461394833
 21
2.999732131075
 31
0.0
  0
LINE
  5
182
330
167
100
AcDbEntity
  8
FREI LASSEN
  6
AUSGEZOGEN
 62
    18
420
        0
370
    18
100
AcDbLine
 10
-148.297476452382
 20
2.994979647849
 30
0.0
 11
-147.910765466431
 21
2.992529148686
 31
0.0
  0
LINE
  5
183
330
167
100
AcDbEntity
  8
FREI LASSEN
  6
AUSGEZOGEN
 62
    18
420
        0
370
    18
100
AcDbLine
 10
-149.792693854058
 20
3.754469556752
 30
0.0
 11
-149.042708911607
 21
3.749717073526
 31
0.0
  0
LINE
  5
184
330
167
100
AcDbEntity
  8
FREI LASSEN
  6
AUSGEZOGEN
 62
    18
420
        0
370
    18
100
AcDbLine
 10
-148.292723969156
 20
3.7449645903
 30
0.0
 11
-147.542739026705
 21
3.740212107074
 31
0.0
  0
LINE
  5
185
330
167
100
AcDbEntity
  8
FREI LASSEN
  6
AUSGEZOGEN
 62
    18
420
        0
370
    18
100
AcDbLine
 10
-146.792754084254
 20
3.735459623848
 30
0.0
 11
-146.042769141803
 21
3.730707140622
 31
0.0
  0
LINE
  5
186
330
167
100
AcDbEntity
  8
FREI LASSEN
  6
AUSGEZOGEN
 62
    18
420
        0
370
    18
100
AcDbLine
 10
-145.292784199352
 20
3.725954657396
 30
0.0
 11
-144.542799256901
 21
3.72120217417
 31
0.0
  0
LINE
  5
187
330
167
100
AcDbEntity
  8
FREI LASSEN
  6
AUSGEZOGEN
 62
    18
420
        0
370
    18
100
AcDbLine
 10
-143.79281431445
 20
3.716449690944
 30
0.0
 11
-143.042829371999
 21
3.711697207718
 31
0.0
  0
LINE
  5
188
330
167
100
AcDbEntity
  8
FREI LASSEN
  6
AUSGEZOGEN
 62
    18
420
        0
370
    18
100
AcDbLine
 10
-142.292844429548
 20
3.706944724492
 30
0.0
 11
-141.542859487097
 21
3.702192241266
 31
0.0
  0
LINE
  5
189
330
167
100
AcDbEntity
  8
FREI LASSEN
  6
AUSGEZOGEN
 62
    18
420
        0
370
    18
100
AcDbLine
 10
-151.287911255734
 20
4.513959465655
 30
0.0
 11
-150.537926313283
 21
4.509206982429
 31
0.0
  0
LINE
  5
18A
330
167
100
AcDbEntity
  8
FREI LASSEN
  6
AUSGEZOGEN
 62
    18
420
        0
370
    18
100
AcDbLine
 10
-149.787941370832
 20
4.504454499203
 30
0.0
 11
-149.037956428381
 21
4.499702015977
 31
0.0
  0
LINE
  5
18B
330
167
100
AcDbEntity
  8
FREI LASSEN
  6
AUSGEZOGEN
 62
    18
420
        0
370
    18
100
AcDbLine
 10
-148.28797148593
 20
4.494949532751
 30
0.0
 11
-147.537986543479
 21
4.490197049525
 31
0.0
  0
LINE
  5
18C
330
167
100
AcDbEntity
  8
FREI LASSEN
  6
AUSGEZOGEN
 62
    18
420
        0
370
    18
100
AcDbLine
 10
-146.788001601028
 20
4.485444566299
 30
0.0
 11
-146.038016658577
 21
4.480692083073
 31
0.0
  0
LINE
  5
18D
330
167
100
AcDbEntity
  8
FREI LASSEN
  6
AUSGEZOGEN
 62
    18
420
        0
370
    18
100
AcDbLine
 10
-145.288031716126
 20
4.475939599847
 30
0.0
 11
-144.538046773675
 21
4.471187116621
 31
0.0
  0
LINE
  5
18E
330
167
100
AcDbEntity
  8
FREI LASSEN
  6
AUSGEZOGEN
 62
    18
420
        0
370
    18
100
AcDbLine
 10
-143.788061831224
 20
4.466434633395
 30
0.0
 11
-143.038076888773
 21
4.461682150169
 31
0.0
  0
LINE
  5
18F
330
167
100
AcDbEntity
  8
FREI LASSEN
  6
AUSGEZOGEN
 62
    18
420
        0
370
    18
100
AcDbLine
 10
-142.288091946322
 20
4.456929666943
 30
0.0
 11
-141.538107003871
 21
4.452177183717
 31
0.0
  0
LINE
  5
190
330
167
100
AcDbEntity
  8
FREI LASSEN
  6
AUSGEZOGEN
 62
    18
420
        0
370
    18
100
AcDbLine
 10
-151.283158772508
 20
5.263944408106
 30
0.0
 11
-150.533173830057
 21
5.25919192488
 31
0.0
  0
LINE
  5
191
330
167
100
AcDbEntity
  8
FREI LASSEN
  6
AUSGEZOGEN
 62
    18
420
        0
370
    18
100
AcDbLine
 10
-149.783188887606
 20
5.254439441654
 30
0.0
 11
-149.033203945155
 21
5.249686958428
 31
0.0
  0
LINE
  5
192
330
167
100
AcDbEntity
  8
FREI LASSEN
  6
AUSGEZOGEN
 62
    18
420
        0
370
    18
100
AcDbLine
 10
-148.283219002704
 20
5.244934475202
 30
0.0
 11
-147.533234060253
 21
5.240181991976
 31
0.0
  0
LINE
  5
193
330
167
100
AcDbEntity
  8
FREI LASSEN
  6
AUSGEZOGEN
 62
    18
420
        0
370
    18
100
AcDbLine
 10
-146.783249117802
 20
5.23542950875
 30
0.0
 11
-146.033264175351
 21
5.230677025524
 31
0.0
  0
LINE
  5
194
330
167
100
AcDbEntity
  8
FREI LASSEN
  6
AUSGEZOGEN
 62
    18
420
        0
370
    18
100
AcDbLine
 10
-145.2832792329
 20
5.225924542298
 30
0.0
 11
-144.533294290449
 21
5.221172059072
 31
0.0
  0
LINE
  5
195
330
167
100
AcDbEntity
  8
FREI LASSEN
  6
AUSGEZOGEN
 62
    18
420
        0
370
    18
100
AcDbLine
 10
-143.783309347998
 20
5.216419575846
 30
0.0
 11
-143.033324405547
 21
5.21166709262
 31
0.0
  0
LINE
  5
196
330
167
100
AcDbEntity
  8
FREI LASSEN
  6
AUSGEZOGEN
 62
    18
420
        0
370
    18
100
AcDbLine
 10
-142.283339463096
 20
5.206914609394
 30
0.0
 11
-141.533354520645
 21
5.202162126168
 31
0.0
  0
LINE
  5
197
330
167
100
AcDbEntity
  8
FREI LASSEN
  6
AUSGEZOGEN
 62
    18
420
        0
370
    18
100
AcDbLine
 10
-151.000489050385
 20
6.012168252512
 30
0.0
 11
-150.528421346831
 21
6.009176867331
 31
0.0
  0
LINE
  5
198
330
167
100
AcDbEntity
  8
FREI LASSEN
  6
AUSGEZOGEN
 62
    18
420
        0
370
    18
100
AcDbLine
 10
-149.77843640438
 20
6.004424384105
 30
0.0
 11
-149.028451461929
 21
5.999671900879
 31
0.0
  0
LINE
  5
199
330
167
100
AcDbEntity
  8
FREI LASSEN
  6
AUSGEZOGEN
 62
    18
420
        0
370
    18
100
AcDbLine
 10
-148.278466519478
 20
5.994919417653
 30
0.0
 11
-147.528481577027
 21
5.990166934427
 31
0.0
  0
LINE
  5
19A
330
167
100
AcDbEntity
  8
FREI LASSEN
  6
AUSGEZOGEN
 62
    18
420
        0
370
    18
100
AcDbLine
 10
-146.778496634576
 20
5.985414451201
 30
0.0
 11
-146.028511692125
 21
5.980661967975
 31
0.0
  0
LINE
  5
19B
330
167
100
AcDbEntity
  8
FREI LASSEN
  6
AUSGEZOGEN
 62
    18
420
        0
370
    18
100
AcDbLine
 10
-145.278526749674
 20
5.975909484749
 30
0.0
 11
-144.528541807223
 21
5.971157001523
 31
0.0
  0
LINE
  5
19C
330
167
100
AcDbEntity
  8
FREI LASSEN
  6
AUSGEZOGEN
 62
    18
420
        0
370
    18
100
AcDbLine
 10
-143.778556864772
 20
5.966404518297
 30
0.0
 11
-143.028571922321
 21
5.961652035071
 31
0.0
  0
LINE
  5
19D
330
167
100
AcDbEntity
  8
FREI LASSEN
  6
AUSGEZOGEN
 62
    18
420
        0
370
    18
100
AcDbLine
 10
-142.27858697987
 20
5.956899551845
 30
0.0
 11
-141.528602037419
 21
5.952147068619
 31
0.0
  0
LINE
  5
19E
330
167
100
AcDbEntity
  8
FREI LASSEN
  6
AUSGEZOGEN
 62
    18
420
        0
370
    18
100
AcDbLine
 10
-149.554581306955
 20
6.75302092335
 30
0.0
 11
-149.023698978703
 21
6.74965684333
 31
0.0
  0
LINE
  5
19F
330
167
100
AcDbEntity
  8
FREI LASSEN
  6
AUSGEZOGEN
 62
    18
420
        0
370
    18
100
AcDbLine
 10
-148.273714036252
 20
6.744904360104
 30
0.0
 11
-147.523729093801
 21
6.740151876878
 31
0.0
  0
LINE
  5
1A0
330
167
100
AcDbEntity
  8
FREI LASSEN
  6
AUSGEZOGEN
 62
    18
420
        0
370
    18
100
AcDbLine
 10
-146.77374415135
 20
6.735399393652
 30
0.0
 11
-146.023759208899
 21
6.730646910426
 31
0.0
  0
LINE
  5
1A1
330
167
100
AcDbEntity
  8
FREI LASSEN
  6
AUSGEZOGEN
 62
    18
420
        0
370
    18
100
AcDbLine
 10
-145.273774266448
 20
6.7258944272
 30
0.0
 11
-144.523789323997
 21
6.721141943974
 31
0.0
  0
LINE
  5
1A2
330
167
100
AcDbEntity
  8
FREI LASSEN
  6
AUSGEZOGEN
 62
    18
420
        0
370
    18
100
AcDbLine
 10
-143.773804381546
 20
6.716389460748
 30
0.0
 11
-143.023819439095
 21
6.711636977522
 31
0.0
  0
LINE
  5
1A3
330
167
100
AcDbEntity
  8
FREI LASSEN
  6
AUSGEZOGEN
 62
    18
420
        0
370
    18
100
AcDbLine
 10
-142.273834496644
 20
6.706884494296
 30
0.0
 11
-141.523849554193
 21
6.70213201107
 31
0.0
  0
LINE
  5
1A4
330
167
100
AcDbEntity
  8
FREI LASSEN
  6
AUSGEZOGEN
 62
    18
420
        0
370
    18
100
AcDbLine
 10
-149.560785711974
 20
7.503075297098
 30
0.0
 11
-149.018946495477
 21
7.499641785781
 31
0.0
  0
LINE
  5
1A5
330
167
100
AcDbEntity
  8
FREI LASSEN
  6
AUSGEZOGEN
 62
    18
420
        0
370
    18
100
AcDbLine
 10
-148.268961553026
 20
7.494889302555
 30
0.0
 11
-147.518976610575
 21
7.490136819329
 31
0.0
  0
LINE
  5
1A6
330
167
100
AcDbEntity
  8
FREI LASSEN
  6
AUSGEZOGEN
 62
    18
420
        0
370
    18
100
AcDbLine
 10
-146.768991668124
 20
7.485384336103
 30
0.0
 11
-146.019006725673
 21
7.480631852877
 31
0.0
  0
LINE
  5
1A7
330
167
100
AcDbEntity
  8
FREI LASSEN
  6
AUSGEZOGEN
 62
    18
420
        0
370
    18
100
AcDbLine
 10
-145.269021783222
 20
7.475879369651
 30
0.0
 11
-144.519036840771
 21
7.471126886425
 31
0.0
  0
LINE
  5
1A8
330
167
100
AcDbEntity
  8
FREI LASSEN
  6
AUSGEZOGEN
 62
    18
420
        0
370
    18
100
AcDbLine
 10
-143.76905189832
 20
7.466374403199
 30
0.0
 11
-143.019066955869
 21
7.461621919973
 31
0.0
  0
LINE
  5
1A9
330
167
100
AcDbEntity
  8
FREI LASSEN
  6
AUSGEZOGEN
 62
    18
420
        0
370
    18
100
AcDbLine
 10
-142.269082013418
 20
7.456869436747
 30
0.0
 11
-141.519097070967
 21
7.452116953521
 31
0.0
  0
LINE
  5
1AA
330
167
100
AcDbEntity
  8
FREI LASSEN
  6
AUSGEZOGEN
 62
    18
420
        0
370
    18
100
AcDbLine
 10
-151.035262943279
 20
8.26243378028
 30
0.0
 11
-150.514163897153
 21
8.259131694684
 31
0.0
  0
LINE
  5
1AB
330
167
100
AcDbEntity
  8
FREI LASSEN
  6
AUSGEZOGEN
 62
    18
420
        0
370
    18
100
AcDbLine
 10
-149.764178954702
 20
8.254379211458
 30
0.0
 11
-149.014194012251
 21
8.249626728232
 31
0.0
  0
LINE
  5
1AC
330
167
100
AcDbEntity
  8
FREI LASSEN
  6
AUSGEZOGEN
 62
    18
420
        0
370
    18
100
AcDbLine
 10
-148.2642090698
 20
8.244874245006
 30
0.0
 11
-147.514224127349
 21
8.24012176178
 31
0.0
  0
LINE
  5
1AD
330
167
100
AcDbEntity
  8
FREI LASSEN
  6
AUSGEZOGEN
 62
    18
420
        0
370
    18
100
AcDbLine
 10
-146.764239184898
 20
8.235369278554
 30
0.0
 11
-146.014254242447
 21
8.230616795328
 31
0.0
  0
LINE
  5
1AE
330
167
100
AcDbEntity
  8
FREI LASSEN
  6
AUSGEZOGEN
 62
    18
420
        0
370
    18
100
AcDbLine
 10
-145.264269299996
 20
8.225864312102
 30
0.0
 11
-144.514284357545
 21
8.221111828876
 31
0.0
  0
LINE
  5
1AF
330
167
100
AcDbEntity
  8
FREI LASSEN
  6
AUSGEZOGEN
 62
    18
420
        0
370
    18
100
AcDbLine
 10
-143.764299415094
 20
8.21635934565
 30
0.0
 11
-143.014314472643
 21
8.211606862424
 31
0.0
  0
LINE
  5
1B0
330
167
100
AcDbEntity
  8
FREI LASSEN
  6
AUSGEZOGEN
 62
    18
420
        0
370
    18
100
AcDbLine
 10
-142.264329530192
 20
8.206854379198
 30
0.0
 11
-141.514344587741
 21
8.202101895972
 31
0.0
  0
LINE
  5
1B1
330
167
100
AcDbEntity
  8
FREI LASSEN
  6
AUSGEZOGEN
 62
    18
420
        0
370
    18
100
AcDbLine
 10
-151.259396356378
 20
9.013869120361
 30
0.0
 11
-150.509411413927
 21
9.009116637135
 31
0.0
  0
LINE
  5
1B2
330
167
100
AcDbEntity
  8
FREI LASSEN
  6
AUSGEZOGEN
 62
    18
420
        0
370
    18
100
AcDbLine
 10
-149.759426471476
 20
9.004364153909
 30
0.0
 11
-149.009441529025
 21
8.999611670683
 31
0.0
  0
LINE
  5
1B3
330
167
100
AcDbEntity
  8
FREI LASSEN
  6
AUSGEZOGEN
 62
    18
420
        0
370
    18
100
AcDbLine
 10
-148.259456586574
 20
8.994859187457
 30
0.0
 11
-147.509471644123
 21
8.990106704231
 31
0.0
  0
LINE
  5
1B4
330
167
100
AcDbEntity
  8
FREI LASSEN
  6
AUSGEZOGEN
 62
    18
420
        0
370
    18
100
AcDbLine
 10
-146.759486701672
 20
8.985354221005
 30
0.0
 11
-146.009501759221
 21
8.980601737779
 31
0.0
  0
LINE
  5
1B5
330
167
100
AcDbEntity
  8
FREI LASSEN
  6
AUSGEZOGEN
 62
    18
420
        0
370
    18
100
AcDbLine
 10
-145.25951681677
 20
8.975849254553
 30
0.0
 11
-144.509531874319
 21
8.971096771327
 31
0.0
  0
LINE
  5
1B6
330
167
100
AcDbEntity
  8
FREI LASSEN
  6
AUSGEZOGEN
 62
    18
420
        0
370
    18
100
AcDbLine
 10
-143.759546931868
 20
8.966344288101
 30
0.0
 11
-143.009561989417
 21
8.961591804875
 31
0.0
  0
LINE
  5
1B7
330
167
100
AcDbEntity
  8
FREI LASSEN
  6
AUSGEZOGEN
 62
    18
420
        0
370
    18
100
AcDbLine
 10
-142.259577046966
 20
8.956839321649
 30
0.0
 11
-141.509592104515
 21
8.952086838423
 31
0.0
  0
LINE
  5
1B8
330
167
100
AcDbEntity
  8
FREI LASSEN
  6
AUSGEZOGEN
 62
    18
420
        0
370
    18
100
AcDbLine
 10
-151.254643873152
 20
9.763854062812
 30
0.0
 11
-150.504658930701
 21
9.759101579586
 31
0.0
  0
LINE
  5
1B9
330
167
100
AcDbEntity
  8
FREI LASSEN
  6
AUSGEZOGEN
 62
    18
420
        0
370
    18
100
AcDbLine
 10
-149.75467398825
 20
9.75434909636
 30
0.0
 11
-149.004689045799
 21
9.749596613134
 31
0.0
  0
LINE
  5
1BA
330
167
100
AcDbEntity
  8
FREI LASSEN
  6
AUSGEZOGEN
 62
    18
420
        0
370
    18
100
AcDbLine
 10
-148.254704103348
 20
9.744844129908
 30
0.0
 11
-147.504719160897
 21
9.740091646682
 31
0.0
  0
LINE
  5
1BB
330
167
100
AcDbEntity
  8
FREI LASSEN
  6
AUSGEZOGEN
 62
    18
420
        0
370
    18
100
AcDbLine
 10
-146.754734218446
 20
9.735339163456
 30
0.0
 11
-146.004749275995
 21
9.73058668023
 31
0.0
  0
LINE
  5
1BC
330
167
100
AcDbEntity
  8
FREI LASSEN
  6
AUSGEZOGEN
 62
    18
420
        0
370
    18
100
AcDbLine
 10
-145.254764333544
 20
9.725834197004
 30
0.0
 11
-144.504779391093
 21
9.721081713778
 31
0.0
  0
LINE
  5
1BD
330
167
100
AcDbEntity
  8
FREI LASSEN
  6
AUSGEZOGEN
 62
    18
420
        0
370
    18
100
AcDbLine
 10
-143.754794448642
 20
9.716329230552
 30
0.0
 11
-143.004809506191
 21
9.711576747326
 31
0.0
  0
LINE
  5
1BE
330
167
100
AcDbEntity
  8
FREI LASSEN
  6
AUSGEZOGEN
 62
    18
420
        0
370
    18
100
AcDbLine
 10
-142.25482456374
 20
9.7068242641
 30
0.0
 11
-141.599029145759
 21
9.70266863837
 31
0.0
  0
LINE
  5
1BF
330
167
100
AcDbEntity
  8
FREI LASSEN
  6
AUSGEZOGEN
 62
    18
420
        0
370
    18
100
AcDbLine
 10
-149.090233743867
 20
-3.750132350984
 30
0.0
 11
-148.939286258731
 21
-3.601085859139
 31
0.0
  0
LINE
  5
1C0
330
167
100
AcDbEntity
  8
FREI LASSEN
  6
AUSGEZOGEN
 62
    18
420
        0
370
    18
100
AcDbLine
 10
-148.486443803325
 20
-3.153946383604
 30
0.0
 11
-148.33549631819
 21
-3.004899891759
 31
0.0
  0
LINE
  5
1C1
330
167
100
AcDbEntity
  8
FREI LASSEN
  6
AUSGEZOGEN
 62
    18
420
        0
370
    18
100
AcDbLine
 10
-147.580758892513
 20
-2.259667432534
 30
0.0
 11
-147.556755157976
 21
-2.235965994774
 31
0.0
  0
LINE
  5
1C2
330
167
100
AcDbEntity
  8
FREI LASSEN
  6
AUSGEZOGEN
 62
    18
420
        0
370
    18
100
AcDbLine
 10
-141.542859487097
 20
3.702192241266
 30
0.0
 11
-141.517707907259
 21
3.727027068663
 31
0.0
  0
LINE
  5
1C3
330
167
100
AcDbEntity
  8
FREI LASSEN
  6
AUSGEZOGEN
 62
    18
420
        0
370
    18
100
AcDbLine
 10
-149.085481260641
 20
-3.000147408533
 30
0.0
 11
-148.934533775505
 21
-2.851100916688
 31
0.0
  0
LINE
  5
1C4
330
167
100
AcDbEntity
  8
FREI LASSEN
  6
AUSGEZOGEN
 62
    18
420
        0
370
    18
100
AcDbLine
 10
-148.481691320099
 20
-2.403961441153
 30
0.0
 11
-148.330743834964
 21
-2.254914949308
 31
0.0
  0
LINE
  5
1C5
330
167
100
AcDbEntity
  8
FREI LASSEN
  6
AUSGEZOGEN
 62
    18
420
        0
370
    18
100
AcDbLine
 10
-147.576006409287
 20
-1.509682490083
 30
0.0
 11
-147.425058924151
 21
-1.360635998238
 31
0.0
  0
LINE
  5
1C6
330
167
100
AcDbEntity
  8
FREI LASSEN
  6
AUSGEZOGEN
 62
    18
420
        0
370
    18
100
AcDbLine
 10
-146.972216468745
 20
-0.913496522703
 30
0.0
 11
-146.82126898361
 21
-0.764450030858
 31
0.0
  0
LINE
  5
1C7
330
167
100
AcDbEntity
  8
FREI LASSEN
  6
AUSGEZOGEN
 62
    18
420
        0
370
    18
100
AcDbLine
 10
-142.935419487798
 20
3.072462089069
 30
0.0
 11
-142.89663437009
 21
3.110758757112
 31
0.0
  0
LINE
  5
1C8
330
167
100
AcDbEntity
  8
FREI LASSEN
  6
AUSGEZOGEN
 62
    18
420
        0
370
    18
100
AcDbLine
 10
-142.443791914683
 20
3.557898232647
 30
0.0
 11
-142.292844429548
 21
3.706944724492
 31
0.0
  0
LINE
  5
1C9
330
167
100
AcDbEntity
  8
FREI LASSEN
  6
AUSGEZOGEN
 62
    18
420
        0
370
    18
100
AcDbLine
 10
-141.538107003871
 20
4.452177183717
 30
0.0
 11
-141.501156317406
 21
4.488662522867
 31
0.0
  0
LINE
  5
1CA
330
167
100
AcDbEntity
  8
FREI LASSEN
  6
AUSGEZOGEN
 62
    18
420
        0
370
    18
100
AcDbLine
 10
-149.986413688227
 20
-3.144441417152
 30
0.0
 11
-149.835466203092
 21
-2.995394925307
 31
0.0
  0
LINE
  5
1CB
330
167
100
AcDbEntity
  8
FREI LASSEN
  6
AUSGEZOGEN
 62
    18
420
        0
370
    18
100
AcDbLine
 10
-149.080728777415
 20
-2.250162466082
 30
0.0
 11
-148.929781292279
 21
-2.101115974237
 31
0.0
  0
LINE
  5
1CC
330
167
100
AcDbEntity
  8
FREI LASSEN
  6
AUSGEZOGEN
 62
    18
420
        0
370
    18
100
AcDbLine
 10
-148.476938836873
 20
-1.653976498702
 30
0.0
 11
-148.325991351738
 21
-1.504930006857
 31
0.0
  0
LINE
  5
1CD
330
167
100
AcDbEntity
  8
FREI LASSEN
  6
AUSGEZOGEN
 62
    18
420
        0
370
    18
100
AcDbLine
 10
-147.571253926061
 20
-0.759697547632
 30
0.0
 11
-147.420306440925
 21
-0.610651055787
 31
0.0
  0
LINE
  5
1CE
330
167
100
AcDbEntity
  8
FREI LASSEN
  6
AUSGEZOGEN
 62
    18
420
        0
370
    18
100
AcDbLine
 10
-146.967463985519
 20
-0.163511580252
 30
0.0
 11
-146.816516500384
 21
-0.014465088407
 31
0.0
  0
LINE
  5
1CF
330
167
100
AcDbEntity
  8
FREI LASSEN
  6
AUSGEZOGEN
 62
    18
420
        0
370
    18
100
AcDbLine
 10
-143.042829371999
 20
3.711697207718
 30
0.0
 11
-142.891881886864
 21
3.860743699563
 31
0.0
  0
LINE
  5
1D0
330
167
100
AcDbEntity
  8
FREI LASSEN
  6
AUSGEZOGEN
 62
    18
420
        0
370
    18
100
AcDbLine
 10
-142.439039431458
 20
4.307883175098
 30
0.0
 11
-142.288091946322
 21
4.456929666943
 31
0.0
  0
LINE
  5
1D1
330
167
100
AcDbEntity
  8
FREI LASSEN
  6
AUSGEZOGEN
 62
    18
420
        0
370
    18
100
AcDbLine
 10
-141.533354520645
 20
5.202162126168
 30
0.0
 11
-141.49640383418
 21
5.238647465318
 31
0.0
  0
LINE
  5
1D2
330
167
100
AcDbEntity
  8
FREI LASSEN
  6
AUSGEZOGEN
 62
    18
420
        0
370
    18
100
AcDbLine
 10
-149.981661205001
 20
-2.394456474701
 30
0.0
 11
-149.830713719866
 21
-2.245409982856
 31
0.0
  0
LINE
  5
1D3
330
167
100
AcDbEntity
  8
FREI LASSEN
  6
AUSGEZOGEN
 62
    18
420
        0
370
    18
100
AcDbLine
 10
-149.075976294189
 20
-1.500177523631
 30
0.0
 11
-148.925028809053
 21
-1.351131031786
 31
0.0
  0
LINE
  5
1D4
330
167
100
AcDbEntity
  8
FREI LASSEN
  6
AUSGEZOGEN
 62
    18
420
        0
370
    18
100
AcDbLine
 10
-148.472186353647
 20
-0.903991556251
 30
0.0
 11
-148.321238868512
 21
-0.754945064406
 31
0.0
  0
LINE
  5
1D5
330
167
100
AcDbEntity
  8
FREI LASSEN
  6
AUSGEZOGEN
 62
    18
420
        0
370
    18
100
AcDbLine
 10
-147.566501442835
 20
-0.009712605181
 30
0.0
 11
-147.454339075408
 21
0.101037218621
 31
0.0
  0
LINE
  5
1D6
330
167
100
AcDbEntity
  8
FREI LASSEN
  6
AUSGEZOGEN
 62
    18
420
        0
370
    18
100
AcDbLine
 10
-144.4353893727
 20
3.081967055521
 30
0.0
 11
-144.396604254991
 21
3.120263723564
 31
0.0
  0
LINE
  5
1D7
330
167
100
AcDbEntity
  8
FREI LASSEN
  6
AUSGEZOGEN
 62
    18
420
        0
370
    18
100
AcDbLine
 10
-143.943761799585
 20
3.567403199099
 30
0.0
 11
-143.79281431445
 21
3.716449690944
 31
0.0
  0
LINE
  5
1D8
330
167
100
AcDbEntity
  8
FREI LASSEN
  6
AUSGEZOGEN
 62
    18
420
        0
370
    18
100
AcDbLine
 10
-143.038076888773
 20
4.461682150169
 30
0.0
 11
-142.887129403638
 21
4.610728642014
 31
0.0
  0
LINE
  5
1D9
330
167
100
AcDbEntity
  8
FREI LASSEN
  6
AUSGEZOGEN
 62
    18
420
        0
370
    18
100
AcDbLine
 10
-142.434286948231
 20
5.057868117549
 30
0.0
 11
-142.283339463096
 21
5.206914609394
 31
0.0
  0
LINE
  5
1DA
330
167
100
AcDbEntity
  8
FREI LASSEN
  6
AUSGEZOGEN
 62
    18
420
        0
370
    18
100
AcDbLine
 10
-141.528602037419
 20
5.952147068619
 30
0.0
 11
-141.491651350954
 21
5.988632407769
 31
0.0
  0
LINE
  5
1DB
330
167
100
AcDbEntity
  8
FREI LASSEN
  6
AUSGEZOGEN
 62
    18
420
        0
370
    18
100
AcDbLine
 10
-149.976908721775
 20
-1.64447153225
 30
0.0
 11
-149.82596123664
 21
-1.495425040405
 31
0.0
  0
LINE
  5
1DC
330
167
100
AcDbEntity
  8
FREI LASSEN
  6
AUSGEZOGEN
 62
    18
420
        0
370
    18
100
AcDbLine
 10
-149.071223810963
 20
-0.75019258118
 30
0.0
 11
-148.920276325827
 21
-0.601146089335
 31
0.0
  0
LINE
  5
1DD
330
167
100
AcDbEntity
  8
FREI LASSEN
  6
AUSGEZOGEN
 62
    18
420
        0
370
    18
100
AcDbLine
 10
-148.467433870421
 20
-0.1540066138
 30
0.0
 11
-148.316486385286
 21
-0.004960121955
 31
0.0
  0
LINE
  5
1DE
330
167
100
AcDbEntity
  8
FREI LASSEN
  6
AUSGEZOGEN
 62
    18
420
        0
370
    18
100
AcDbLine
 10
-144.542799256901
 20
3.72120217417
 30
0.0
 11
-144.391851771766
 21
3.870248666015
 31
0.0
  0
LINE
  5
1DF
330
167
100
AcDbEntity
  8
FREI LASSEN
  6
AUSGEZOGEN
 62
    18
420
        0
370
    18
100
AcDbLine
 10
-143.939009316359
 20
4.31738814155
 30
0.0
 11
-143.788061831224
 21
4.466434633395
 31
0.0
  0
LINE
  5
1E0
330
167
100
AcDbEntity
  8
FREI LASSEN
  6
AUSGEZOGEN
 62
    18
420
        0
370
    18
100
AcDbLine
 10
-143.033324405547
 20
5.21166709262
 30
0.0
 11
-142.882376920412
 21
5.360713584465
 31
0.0
  0
LINE
  5
1E1
330
167
100
AcDbEntity
  8
FREI LASSEN
  6
AUSGEZOGEN
 62
    18
420
        0
370
    18
100
AcDbLine
 10
-142.429534465005
 20
5.80785306
 30
0.0
 11
-142.27858697987
 21
5.956899551845
 31
0.0
  0
LINE
  5
1E2
330
167
100
AcDbEntity
  8
FREI LASSEN
  6
AUSGEZOGEN
 62
    18
420
        0
370
    18
100
AcDbLine
 10
-141.523849554193
 20
6.70213201107
 30
0.0
 11
-141.486898867728
 21
6.73861735022
 31
0.0
  0
LINE
  5
1E3
330
167
100
AcDbEntity
  8
FREI LASSEN
  6
AUSGEZOGEN
 62
    18
420
        0
370
    18
100
AcDbLine
 10
-150.512942561975
 20
-1.428462391198
 30
0.0
 11
-150.424998693955
 21
-1.341626065334
 31
0.0
  0
LINE
  5
1E4
330
167
100
AcDbEntity
  8
FREI LASSEN
  6
AUSGEZOGEN
 62
    18
420
        0
370
    18
100
AcDbLine
 10
-149.972156238549
 20
-0.894486589799
 30
0.0
 11
-149.821208753414
 21
-0.745440097954
 31
0.0
  0
LINE
  5
1E5
330
167
100
AcDbEntity
  8
FREI LASSEN
  6
AUSGEZOGEN
 62
    18
420
        0
370
    18
100
AcDbLine
 10
-149.066471327737
 20
-0.000207638729
 30
0.0
 11
-148.915523842601
 21
0.148838853116
 31
0.0
  0
LINE
  5
1E6
330
167
100
AcDbEntity
  8
FREI LASSEN
  6
AUSGEZOGEN
 62
    18
420
        0
370
    18
100
AcDbLine
 10
-148.462681387195
 20
0.595978328651
 30
0.0
 11
-148.31173390206
 21
0.745024820496
 31
0.0
  0
LINE
  5
1E7
330
167
100
AcDbEntity
  8
FREI LASSEN
  6
AUSGEZOGEN
 62
    18
420
        0
370
    18
100
AcDbLine
 10
-145.935359257602
 20
3.091472021973
 30
0.0
 11
-145.896574139894
 21
3.129768690016
 31
0.0
  0
LINE
  5
1E8
330
167
100
AcDbEntity
  8
FREI LASSEN
  6
AUSGEZOGEN
 62
    18
420
        0
370
    18
100
AcDbLine
 10
-145.443731684487
 20
3.576908165551
 30
0.0
 11
-145.292784199352
 21
3.725954657396
 31
0.0
  0
LINE
  5
1E9
330
167
100
AcDbEntity
  8
FREI LASSEN
  6
AUSGEZOGEN
 62
    18
420
        0
370
    18
100
AcDbLine
 10
-144.538046773675
 20
4.471187116621
 30
0.0
 11
-144.38709928854
 21
4.620233608466
 31
0.0
  0
LINE
  5
1EA
330
167
100
AcDbEntity
  8
FREI LASSEN
  6
AUSGEZOGEN
 62
    18
420
        0
370
    18
100
AcDbLine
 10
-143.934256833133
 20
5.067373084001
 30
0.0
 11
-143.783309347998
 21
5.216419575846
 31
0.0
  0
LINE
  5
1EB
330
167
100
AcDbEntity
  8
FREI LASSEN
  6
AUSGEZOGEN
 62
    18
420
        0
370
    18
100
AcDbLine
 10
-143.028571922321
 20
5.961652035071
 30
0.0
 11
-142.877624437186
 21
6.110698526916
 31
0.0
  0
LINE
  5
1EC
330
167
100
AcDbEntity
  8
FREI LASSEN
  6
AUSGEZOGEN
 62
    18
420
        0
370
    18
100
AcDbLine
 10
-142.424781981779
 20
6.557838002451
 30
0.0
 11
-142.273834496644
 21
6.706884494296
 31
0.0
  0
LINE
  5
1ED
330
167
100
AcDbEntity
  8
FREI LASSEN
  6
AUSGEZOGEN
 62
    18
420
        0
370
    18
100
AcDbLine
 10
-141.519097070967
 20
7.452116953521
 30
0.0
 11
-141.482146384502
 21
7.488602292671
 31
0.0
  0
LINE
  5
1EE
330
167
100
AcDbEntity
  8
FREI LASSEN
  6
AUSGEZOGEN
 62
    18
420
        0
370
    18
100
AcDbLine
 10
-150.571193695865
 20
-0.740687614728
 30
0.0
 11
-150.420246210729
 21
-0.591641122883
 31
0.0
  0
LINE
  5
1EF
330
167
100
AcDbEntity
  8
FREI LASSEN
  6
AUSGEZOGEN
 62
    18
420
        0
370
    18
100
AcDbLine
 10
-149.967403755323
 20
-0.144501647348
 30
0.0
 11
-149.816456270188
 21
0.004544844497
 31
0.0
  0
LINE
  5
1F0
330
167
100
AcDbEntity
  8
FREI LASSEN
  6
AUSGEZOGEN
 62
    18
420
        0
370
    18
100
AcDbLine
 10
-149.061718844511
 20
0.749777303722
 30
0.0
 11
-148.910771359375
 21
0.898823795567
 31
0.0
  0
LINE
  5
1F1
330
167
100
AcDbEntity
  8
FREI LASSEN
  6
AUSGEZOGEN
 62
    18
420
        0
370
    18
100
AcDbLine
 10
-148.457928903969
 20
1.345963271102
 30
0.0
 11
-148.306981418834
 21
1.495009762947
 31
0.0
  0
LINE
  5
1F2
330
167
100
AcDbEntity
  8
FREI LASSEN
  6
AUSGEZOGEN
 62
    18
420
        0
370
    18
100
AcDbLine
 10
-146.042769141803
 20
3.730707140622
 30
0.0
 11
-145.891821656668
 21
3.879753632467
 31
0.0
  0
LINE
  5
1F3
330
167
100
AcDbEntity
  8
FREI LASSEN
  6
AUSGEZOGEN
 62
    18
420
        0
370
    18
100
AcDbLine
 10
-145.438979201261
 20
4.326893108002
 30
0.0
 11
-145.288031716126
 21
4.475939599847
 31
0.0
  0
LINE
  5
1F4
330
167
100
AcDbEntity
  8
FREI LASSEN
  6
AUSGEZOGEN
 62
    18
420
        0
370
    18
100
AcDbLine
 10
-144.533294290449
 20
5.221172059072
 30
0.0
 11
-144.382346805314
 21
5.370218550917
 31
0.0
  0
LINE
  5
1F5
330
167
100
AcDbEntity
  8
FREI LASSEN
  6
AUSGEZOGEN
 62
    18
420
        0
370
    18
100
AcDbLine
 10
-143.929504349908
 20
5.817358026452
 30
0.0
 11
-143.778556864772
 21
5.966404518297
 31
0.0
  0
LINE
  5
1F6
330
167
100
AcDbEntity
  8
FREI LASSEN
  6
AUSGEZOGEN
 62
    18
420
        0
370
    18
100
AcDbLine
 10
-143.023819439095
 20
6.711636977522
 30
0.0
 11
-142.87287195396
 21
6.860683469367
 31
0.0
  0
LINE
  5
1F7
330
167
100
AcDbEntity
  8
FREI LASSEN
  6
AUSGEZOGEN
 62
    18
420
        0
370
    18
100
AcDbLine
 10
-142.420029498553
 20
7.307822944902
 30
0.0
 11
-142.269082013418
 21
7.456869436747
 31
0.0
  0
LINE
  5
1F8
330
167
100
AcDbEntity
  8
FREI LASSEN
  6
AUSGEZOGEN
 62
    18
420
        0
370
    18
100
AcDbLine
 10
-141.514344587741
 20
8.202101895972
 30
0.0
 11
-141.477393901276
 21
8.238587235122
 31
0.0
  0
LINE
  5
1F9
330
167
100
AcDbEntity
  8
FREI LASSEN
  6
AUSGEZOGEN
 62
    18
420
        0
370
    18
100
AcDbLine
 10
-150.566441212639
 20
0.009297327723
 30
0.0
 11
-150.415493727503
 21
0.158343819568
 31
0.0
  0
LINE
  5
1FA
330
167
100
AcDbEntity
  8
FREI LASSEN
  6
AUSGEZOGEN
 62
    18
420
        0
370
    18
100
AcDbLine
 10
-149.962651272097
 20
0.605483295103
 30
0.0
 11
-149.811703786962
 21
0.754529786948
 31
0.0
  0
LINE
  5
1FB
330
167
100
AcDbEntity
  8
FREI LASSEN
  6
AUSGEZOGEN
 62
    18
420
        0
370
    18
100
AcDbLine
 10
-149.056966361285
 20
1.499762246173
 30
0.0
 11
-148.906018876149
 21
1.648808738018
 31
0.0
  0
LINE
  5
1FC
330
167
100
AcDbEntity
  8
FREI LASSEN
  6
AUSGEZOGEN
 62
    18
420
        0
370
    18
100
AcDbLine
 10
-148.453176420743
 20
2.095948213553
 30
0.0
 11
-148.302228935608
 21
2.244994705398
 31
0.0
  0
LINE
  5
1FD
330
167
100
AcDbEntity
  8
FREI LASSEN
  6
AUSGEZOGEN
 62
    18
420
        0
370
    18
100
AcDbLine
 10
-147.435329142504
 20
3.100976988424
 30
0.0
 11
-147.396544024795
 21
3.139273656468
 31
0.0
  0
LINE
  5
1FE
330
167
100
AcDbEntity
  8
FREI LASSEN
  6
AUSGEZOGEN
 62
    18
420
        0
370
    18
100
AcDbLine
 10
-146.943701569389
 20
3.586413132003
 30
0.0
 11
-146.792754084254
 21
3.735459623848
 31
0.0
  0
LINE
  5
1FF
330
167
100
AcDbEntity
  8
FREI LASSEN
  6
AUSGEZOGEN
 62
    18
420
        0
370
    18
100
AcDbLine
 10
-146.038016658577
 20
4.480692083073
 30
0.0
 11
-145.887069173441
 21
4.629738574918
 31
0.0
  0
LINE
  5
200
330
167
100
AcDbEntity
  8
FREI LASSEN
  6
AUSGEZOGEN
 62
    18
420
        0
370
    18
100
AcDbLine
 10
-145.434226718035
 20
5.076878050453
 30
0.0
 11
-145.2832792329
 21
5.225924542298
 31
0.0
  0
LINE
  5
201
330
167
100
AcDbEntity
  8
FREI LASSEN
  6
AUSGEZOGEN
 62
    18
420
        0
370
    18
100
AcDbLine
 10
-144.528541807223
 20
5.971157001523
 30
0.0
 11
-144.377594322088
 21
6.120203493368
 31
0.0
  0
LINE
  5
202
330
167
100
AcDbEntity
  8
FREI LASSEN
  6
AUSGEZOGEN
 62
    18
420
        0
370
    18
100
AcDbLine
 10
-143.924751866681
 20
6.567342968903
 30
0.0
 11
-143.773804381546
 21
6.716389460748
 31
0.0
  0
LINE
  5
203
330
167
100
AcDbEntity
  8
FREI LASSEN
  6
AUSGEZOGEN
 62
    18
420
        0
370
    18
100
AcDbLine
 10
-143.019066955869
 20
7.461621919973
 30
0.0
 11
-142.868119470734
 21
7.610668411818
 31
0.0
  0
LINE
  5
204
330
167
100
AcDbEntity
  8
FREI LASSEN
  6
AUSGEZOGEN
 62
    18
420
        0
370
    18
100
AcDbLine
 10
-142.415277015328
 20
8.057807887353
 30
0.0
 11
-142.264329530192
 21
8.206854379198
 31
0.0
  0
LINE
  5
205
330
167
100
AcDbEntity
  8
FREI LASSEN
  6
AUSGEZOGEN
 62
    18
420
        0
370
    18
100
AcDbLine
 10
-141.509592104515
 20
8.952086838423
 30
0.0
 11
-141.47264141805
 21
8.988572177573
 31
0.0
  0
LINE
  5
206
330
167
100
AcDbEntity
  8
FREI LASSEN
  6
AUSGEZOGEN
 62
    18
420
        0
370
    18
100
AcDbLine
 10
-150.561688729413
 20
0.759282270174
 30
0.0
 11
-150.410741244277
 21
0.908328762019
 31
0.0
  0
LINE
  5
207
330
167
100
AcDbEntity
  8
FREI LASSEN
  6
AUSGEZOGEN
 62
    18
420
        0
370
    18
100
AcDbLine
 10
-149.957898788871
 20
1.355468237554
 30
0.0
 11
-149.806951303736
 21
1.504514729399
 31
0.0
  0
LINE
  5
208
330
167
100
AcDbEntity
  8
FREI LASSEN
  6
AUSGEZOGEN
 62
    18
420
        0
370
    18
100
AcDbLine
 10
-149.052213878059
 20
2.249747188624
 30
0.0
 11
-148.901266392923
 21
2.398793680469
 31
0.0
  0
LINE
  5
209
330
167
100
AcDbEntity
  8
FREI LASSEN
  6
AUSGEZOGEN
 62
    18
420
        0
370
    18
100
AcDbLine
 10
-148.448423937517
 20
2.845933156004
 30
0.0
 11
-148.297476452382
 21
2.994979647849
 31
0.0
  0
LINE
  5
20A
330
167
100
AcDbEntity
  8
FREI LASSEN
  6
AUSGEZOGEN
 62
    18
420
        0
370
    18
100
AcDbLine
 10
-147.542739026705
 20
3.740212107074
 30
0.0
 11
-147.391791541569
 21
3.889258598919
 31
0.0
  0
LINE
  5
20B
330
167
100
AcDbEntity
  8
FREI LASSEN
  6
AUSGEZOGEN
 62
    18
420
        0
370
    18
100
AcDbLine
 10
-146.938949086163
 20
4.336398074454
 30
0.0
 11
-146.788001601028
 21
4.485444566299
 31
0.0
  0
LINE
  5
20C
330
167
100
AcDbEntity
  8
FREI LASSEN
  6
AUSGEZOGEN
 62
    18
420
        0
370
    18
100
AcDbLine
 10
-146.033264175351
 20
5.230677025524
 30
0.0
 11
-145.882316690216
 21
5.379723517369
 31
0.0
  0
LINE
  5
20D
330
167
100
AcDbEntity
  8
FREI LASSEN
  6
AUSGEZOGEN
 62
    18
420
        0
370
    18
100
AcDbLine
 10
-145.429474234809
 20
5.826862992904
 30
0.0
 11
-145.278526749674
 21
5.975909484749
 31
0.0
  0
LINE
  5
20E
330
167
100
AcDbEntity
  8
FREI LASSEN
  6
AUSGEZOGEN
 62
    18
420
        0
370
    18
100
AcDbLine
 10
-144.523789323997
 20
6.721141943974
 30
0.0
 11
-144.372841838862
 21
6.870188435819
 31
0.0
  0
LINE
  5
20F
330
167
100
AcDbEntity
  8
FREI LASSEN
  6
AUSGEZOGEN
 62
    18
420
        0
370
    18
100
AcDbLine
 10
-143.919999383455
 20
7.317327911354
 30
0.0
 11
-143.76905189832
 21
7.466374403199
 31
0.0
  0
LINE
  5
210
330
167
100
AcDbEntity
  8
FREI LASSEN
  6
AUSGEZOGEN
 62
    18
420
        0
370
    18
100
AcDbLine
 10
-143.014314472643
 20
8.211606862424
 30
0.0
 11
-142.863366987508
 21
8.360653354269
 31
0.0
  0
LINE
  5
211
330
167
100
AcDbEntity
  8
FREI LASSEN
  6
AUSGEZOGEN
 62
    18
420
        0
370
    18
100
AcDbLine
 10
-142.410524532101
 20
8.807792829804
 30
0.0
 11
-142.259577046966
 21
8.956839321649
 31
0.0
  0
LINE
  5
212
330
167
100
AcDbEntity
  8
FREI LASSEN
  6
AUSGEZOGEN
 62
    18
420
        0
370
    18
100
AcDbLine
 10
-150.556936246187
 20
1.509267212625
 30
0.0
 11
-150.405988761051
 21
1.65831370447
 31
0.0
  0
LINE
  5
213
330
167
100
AcDbEntity
  8
FREI LASSEN
  6
AUSGEZOGEN
 62
    18
420
        0
370
    18
100
AcDbLine
 10
-149.953146305645
 20
2.105453180005
 30
0.0
 11
-149.80219882051
 21
2.25449967185
 31
0.0
  0
LINE
  5
214
330
167
100
AcDbEntity
  8
FREI LASSEN
  6
AUSGEZOGEN
 62
    18
420
        0
370
    18
100
AcDbLine
 10
-149.047461394833
 20
2.999732131075
 30
0.0
 11
-148.896513909697
 21
3.14877862292
 31
0.0
  0
LINE
  5
215
330
167
100
AcDbEntity
  8
FREI LASSEN
  6
AUSGEZOGEN
 62
    18
420
        0
370
    18
100
AcDbLine
 10
-148.443671454291
 20
3.595918098455
 30
0.0
 11
-148.292723969156
 21
3.7449645903
 31
0.0
  0
LINE
  5
216
330
167
100
AcDbEntity
  8
FREI LASSEN
  6
AUSGEZOGEN
 62
    18
420
        0
370
    18
100
AcDbLine
 10
-147.537986543479
 20
4.490197049525
 30
0.0
 11
-147.387039058343
 21
4.63924354137
 31
0.0
  0
LINE
  5
217
330
167
100
AcDbEntity
  8
FREI LASSEN
  6
AUSGEZOGEN
 62
    18
420
        0
370
    18
100
AcDbLine
 10
-146.934196602937
 20
5.086383016905
 30
0.0
 11
-146.783249117802
 21
5.23542950875
 31
0.0
  0
LINE
  5
218
330
167
100
AcDbEntity
  8
FREI LASSEN
  6
AUSGEZOGEN
 62
    18
420
        0
370
    18
100
AcDbLine
 10
-146.028511692125
 20
5.980661967975
 30
0.0
 11
-145.877564206989
 21
6.12970845982
 31
0.0
  0
LINE
  5
219
330
167
100
AcDbEntity
  8
FREI LASSEN
  6
AUSGEZOGEN
 62
    18
420
        0
370
    18
100
AcDbLine
 10
-145.424721751583
 20
6.576847935355
 30
0.0
 11
-145.273774266448
 21
6.7258944272
 31
0.0
  0
LINE
  5
21A
330
167
100
AcDbEntity
  8
FREI LASSEN
  6
AUSGEZOGEN
 62
    18
420
        0
370
    18
100
AcDbLine
 10
-144.519036840771
 20
7.471126886425
 30
0.0
 11
-144.368089355636
 21
7.62017337827
 31
0.0
  0
LINE
  5
21B
330
167
100
AcDbEntity
  8
FREI LASSEN
  6
AUSGEZOGEN
 62
    18
420
        0
370
    18
100
AcDbLine
 10
-143.915246900229
 20
8.067312853805
 30
0.0
 11
-143.764299415094
 21
8.21635934565
 31
0.0
  0
LINE
  5
21C
330
167
100
AcDbEntity
  8
FREI LASSEN
  6
AUSGEZOGEN
 62
    18
420
        0
370
    18
100
AcDbLine
 10
-143.009561989417
 20
8.961591804875
 30
0.0
 11
-142.858614504282
 21
9.11063829672
 31
0.0
  0
LINE
  5
21D
330
167
100
AcDbEntity
  8
FREI LASSEN
  6
AUSGEZOGEN
 62
    18
420
        0
370
    18
100
AcDbLine
 10
-142.405772048876
 20
9.557777772255
 30
0.0
 11
-142.25482456374
 21
9.7068242641
 31
0.0
  0
LINE
  5
21E
330
167
100
AcDbEntity
  8
FREI LASSEN
  6
AUSGEZOGEN
 62
    18
420
        0
370
    18
100
AcDbLine
 10
-149.948393822419
 20
2.855438122456
 30
0.0
 11
-149.797446337284
 21
3.004484614301
 31
0.0
  0
LINE
  5
21F
330
167
100
AcDbEntity
  8
FREI LASSEN
  6
AUSGEZOGEN
 62
    18
420
        0
370
    18
100
AcDbLine
 10
-149.042708911607
 20
3.749717073526
 30
0.0
 11
-148.891761426471
 21
3.898763565371
 31
0.0
  0
LINE
  5
220
330
167
100
AcDbEntity
  8
FREI LASSEN
  6
AUSGEZOGEN
 62
    18
420
        0
370
    18
100
AcDbLine
 10
-148.438918971065
 20
4.345903040906
 30
0.0
 11
-148.28797148593
 21
4.494949532751
 31
0.0
  0
LINE
  5
221
330
167
100
AcDbEntity
  8
FREI LASSEN
  6
AUSGEZOGEN
 62
    18
420
        0
370
    18
100
AcDbLine
 10
-147.533234060253
 20
5.240181991976
 30
0.0
 11
-147.382286575118
 21
5.389228483821
 31
0.0
  0
LINE
  5
222
330
167
100
AcDbEntity
  8
FREI LASSEN
  6
AUSGEZOGEN
 62
    18
420
        0
370
    18
100
AcDbLine
 10
-146.929444119711
 20
5.836367959356
 30
0.0
 11
-146.778496634576
 21
5.985414451201
 31
0.0
  0
LINE
  5
223
330
167
100
AcDbEntity
  8
FREI LASSEN
  6
AUSGEZOGEN
 62
    18
420
        0
370
    18
100
AcDbLine
 10
-146.023759208899
 20
6.730646910426
 30
0.0
 11
-145.872811723764
 21
6.879693402271
 31
0.0
  0
LINE
  5
224
330
167
100
AcDbEntity
  8
FREI LASSEN
  6
AUSGEZOGEN
 62
    18
420
        0
370
    18
100
AcDbLine
 10
-145.419969268357
 20
7.326832877806
 30
0.0
 11
-145.269021783222
 21
7.475879369651
 31
0.0
  0
LINE
  5
225
330
167
100
AcDbEntity
  8
FREI LASSEN
  6
AUSGEZOGEN
 62
    18
420
        0
370
    18
100
AcDbLine
 10
-144.514284357545
 20
8.221111828876
 30
0.0
 11
-144.36333687241
 21
8.370158320721
 31
0.0
  0
LINE
  5
226
330
167
100
AcDbEntity
  8
FREI LASSEN
  6
AUSGEZOGEN
 62
    18
420
        0
370
    18
100
AcDbLine
 10
-143.910494417003
 20
8.817297796256
 30
0.0
 11
-143.759546931868
 21
8.966344288101
 31
0.0
  0
LINE
  5
227
330
167
100
AcDbEntity
  8
FREI LASSEN
  6
AUSGEZOGEN
 62
    18
420
        0
370
    18
100
AcDbLine
 10
-143.004809506191
 20
9.711576747326
 30
0.0
 11
-142.853862021056
 21
9.860623239171
 31
0.0
  0
LINE
  5
228
330
167
100
AcDbEntity
  8
FREI LASSEN
  6
AUSGEZOGEN
 62
    18
420
        0
370
    18
100
AcDbLine
 10
-149.943641339193
 20
3.605423064907
 30
0.0
 11
-149.792693854058
 21
3.754469556752
 31
0.0
  0
LINE
  5
229
330
167
100
AcDbEntity
  8
FREI LASSEN
  6
AUSGEZOGEN
 62
    18
420
        0
370
    18
100
AcDbLine
 10
-149.037956428381
 20
4.499702015977
 30
0.0
 11
-148.887008943245
 21
4.648748507822
 31
0.0
  0
LINE
  5
22A
330
167
100
AcDbEntity
  8
FREI LASSEN
  6
AUSGEZOGEN
 62
    18
420
        0
370
    18
100
AcDbLine
 10
-148.434166487839
 20
5.095887983357
 30
0.0
 11
-148.283219002704
 21
5.244934475202
 31
0.0
  0
LINE
  5
22B
330
167
100
AcDbEntity
  8
FREI LASSEN
  6
AUSGEZOGEN
 62
    18
420
        0
370
    18
100
AcDbLine
 10
-147.528481577027
 20
5.990166934427
 30
0.0
 11
-147.377534091892
 21
6.139213426272
 31
0.0
  0
LINE
  5
22C
330
167
100
AcDbEntity
  8
FREI LASSEN
  6
AUSGEZOGEN
 62
    18
420
        0
370
    18
100
AcDbLine
 10
-146.924691636485
 20
6.586352901807
 30
0.0
 11
-146.77374415135
 21
6.735399393652
 31
0.0
  0
LINE
  5
22D
330
167
100
AcDbEntity
  8
FREI LASSEN
  6
AUSGEZOGEN
 62
    18
420
        0
370
    18
100
AcDbLine
 10
-146.019006725673
 20
7.480631852877
 30
0.0
 11
-145.868059240538
 21
7.629678344722
 31
0.0
  0
LINE
  5
22E
330
167
100
AcDbEntity
  8
FREI LASSEN
  6
AUSGEZOGEN
 62
    18
420
        0
370
    18
100
AcDbLine
 10
-145.415216785131
 20
8.076817820257
 30
0.0
 11
-145.264269299996
 21
8.225864312102
 31
0.0
  0
LINE
  5
22F
330
167
100
AcDbEntity
  8
FREI LASSEN
  6
AUSGEZOGEN
 62
    18
420
        0
370
    18
100
AcDbLine
 10
-144.509531874319
 20
8.971096771327
 30
0.0
 11
-144.358584389184
 21
9.120143263172
 31
0.0
  0
LINE
  5
230
330
167
100
AcDbEntity
  8
FREI LASSEN
  6
AUSGEZOGEN
 62
    18
420
        0
370
    18
100
AcDbLine
 10
-143.905741933777
 20
9.567282738707
 30
0.0
 11
-143.754794448642
 21
9.716329230552
 31
0.0
  0
LINE
  5
231
330
167
100
AcDbEntity
  8
FREI LASSEN
  6
AUSGEZOGEN
 62
    18
420
        0
370
    18
100
AcDbLine
 10
-149.938888855967
 20
4.355408007358
 30
0.0
 11
-149.787941370832
 21
4.504454499203
 31
0.0
  0
LINE
  5
232
330
167
100
AcDbEntity
  8
FREI LASSEN
  6
AUSGEZOGEN
 62
    18
420
        0
370
    18
100
AcDbLine
 10
-149.033203945155
 20
5.249686958428
 30
0.0
 11
-148.882256460019
 21
5.398733450273
 31
0.0
  0
LINE
  5
233
330
167
100
AcDbEntity
  8
FREI LASSEN
  6
AUSGEZOGEN
 62
    18
420
        0
370
    18
100
AcDbLine
 10
-148.429414004613
 20
5.845872925808
 30
0.0
 11
-148.278466519478
 21
5.994919417653
 31
0.0
  0
LINE
  5
234
330
167
100
AcDbEntity
  8
FREI LASSEN
  6
AUSGEZOGEN
 62
    18
420
        0
370
    18
100
AcDbLine
 10
-147.523729093801
 20
6.740151876878
 30
0.0
 11
-147.372781608666
 21
6.889198368723
 31
0.0
  0
LINE
  5
235
330
167
100
AcDbEntity
  8
FREI LASSEN
  6
AUSGEZOGEN
 62
    18
420
        0
370
    18
100
AcDbLine
 10
-146.919939153259
 20
7.336337844258
 30
0.0
 11
-146.768991668124
 21
7.485384336103
 31
0.0
  0
LINE
  5
236
330
167
100
AcDbEntity
  8
FREI LASSEN
  6
AUSGEZOGEN
 62
    18
420
        0
370
    18
100
AcDbLine
 10
-146.014254242447
 20
8.230616795328
 30
0.0
 11
-145.863306757312
 21
8.379663287173
 31
0.0
  0
LINE
  5
237
330
167
100
AcDbEntity
  8
FREI LASSEN
  6
AUSGEZOGEN
 62
    18
420
        0
370
    18
100
AcDbLine
 10
-145.410464301905
 20
8.826802762708
 30
0.0
 11
-145.25951681677
 21
8.975849254553
 31
0.0
  0
LINE
  5
238
330
167
100
AcDbEntity
  8
FREI LASSEN
  6
AUSGEZOGEN
 62
    18
420
        0
370
    18
100
AcDbLine
 10
-144.504779391093
 20
9.721081713778
 30
0.0
 11
-144.353831905958
 21
9.870128205623
 31
0.0
  0
LINE
  5
239
330
167
100
AcDbEntity
  8
FREI LASSEN
  6
AUSGEZOGEN
 62
    18
420
        0
370
    18
100
AcDbLine
 10
-150.537926313283
 20
4.509206982429
 30
0.0
 11
-150.386978828147
 21
4.658253474274
 31
0.0
  0
LINE
  5
23A
330
167
100
AcDbEntity
  8
FREI LASSEN
  6
AUSGEZOGEN
 62
    18
420
        0
370
    18
100
AcDbLine
 10
-149.934136372741
 20
5.105392949809
 30
0.0
 11
-149.783188887606
 21
5.254439441654
 31
0.0
  0
LINE
  5
23B
330
167
100
AcDbEntity
  8
FREI LASSEN
  6
AUSGEZOGEN
 62
    18
420
        0
370
    18
100
AcDbLine
 10
-149.028451461929
 20
5.999671900879
 30
0.0
 11
-148.877503976793
 21
6.148718392724
 31
0.0
  0
LINE
  5
23C
330
167
100
AcDbEntity
  8
FREI LASSEN
  6
AUSGEZOGEN
 62
    18
420
        0
370
    18
100
AcDbLine
 10
-148.424661521387
 20
6.595857868259
 30
0.0
 11
-148.273714036252
 21
6.744904360104
 31
0.0
  0
LINE
  5
23D
330
167
100
AcDbEntity
  8
FREI LASSEN
  6
AUSGEZOGEN
 62
    18
420
        0
370
    18
100
AcDbLine
 10
-147.518976610575
 20
7.490136819329
 30
0.0
 11
-147.368029125439
 21
7.639183311174
 31
0.0
  0
LINE
  5
23E
330
167
100
AcDbEntity
  8
FREI LASSEN
  6
AUSGEZOGEN
 62
    18
420
        0
370
    18
100
AcDbLine
 10
-146.915186670033
 20
8.086322786709
 30
0.0
 11
-146.764239184898
 21
8.235369278554
 31
0.0
  0
LINE
  5
23F
330
167
100
AcDbEntity
  8
FREI LASSEN
  6
AUSGEZOGEN
 62
    18
420
        0
370
    18
100
AcDbLine
 10
-146.009501759221
 20
8.980601737779
 30
0.0
 11
-145.858554274086
 21
9.129648229624
 31
0.0
  0
LINE
  5
240
330
167
100
AcDbEntity
  8
FREI LASSEN
  6
AUSGEZOGEN
 62
    18
420
        0
370
    18
100
AcDbLine
 10
-145.405711818679
 20
9.576787705159
 30
0.0
 11
-145.254764333544
 21
9.725834197004
 31
0.0
  0
LINE
  5
241
330
167
100
AcDbEntity
  8
FREI LASSEN
  6
AUSGEZOGEN
 62
    18
420
        0
370
    18
100
AcDbLine
 10
-151.318341384618
 20
4.483912565884
 30
0.0
 11
-151.287911255734
 21
4.513959465655
 31
0.0
  0
LINE
  5
242
330
167
100
AcDbEntity
  8
FREI LASSEN
  6
AUSGEZOGEN
 62
    18
420
        0
370
    18
100
AcDbLine
 10
-150.533173830057
 20
5.25919192488
 30
0.0
 11
-150.382226344921
 21
5.408238416725
 31
0.0
  0
LINE
  5
243
330
167
100
AcDbEntity
  8
FREI LASSEN
  6
AUSGEZOGEN
 62
    18
420
        0
370
    18
100
AcDbLine
 10
-149.929383889515
 20
5.85537789226
 30
0.0
 11
-149.77843640438
 21
6.004424384105
 31
0.0
  0
LINE
  5
244
330
167
100
AcDbEntity
  8
FREI LASSEN
  6
AUSGEZOGEN
 62
    18
420
        0
370
    18
100
AcDbLine
 10
-149.023698978703
 20
6.74965684333
 30
0.0
 11
-148.872751493567
 21
6.898703335175
 31
0.0
  0
LINE
  5
245
330
167
100
AcDbEntity
  8
FREI LASSEN
  6
AUSGEZOGEN
 62
    18
420
        0
370
    18
100
AcDbLine
 10
-148.419909038161
 20
7.34584281071
 30
0.0
 11
-148.268961553026
 21
7.494889302555
 31
0.0
  0
LINE
  5
246
330
167
100
AcDbEntity
  8
FREI LASSEN
  6
AUSGEZOGEN
 62
    18
420
        0
370
    18
100
AcDbLine
 10
-147.514224127349
 20
8.24012176178
 30
0.0
 11
-147.363276642214
 21
8.389168253625
 31
0.0
  0
LINE
  5
247
330
167
100
AcDbEntity
  8
FREI LASSEN
  6
AUSGEZOGEN
 62
    18
420
        0
370
    18
100
AcDbLine
 10
-146.910434186807
 20
8.83630772916
 30
0.0
 11
-146.759486701672
 21
8.985354221005
 31
0.0
  0
LINE
  5
248
330
167
100
AcDbEntity
  8
FREI LASSEN
  6
AUSGEZOGEN
 62
    18
420
        0
370
    18
100
AcDbLine
 10
-146.004749275995
 20
9.73058668023
 30
0.0
 11
-145.85380179086
 21
9.879633172075
 31
0.0
  0
LINE
  5
249
330
167
100
AcDbEntity
  8
FREI LASSEN
  6
AUSGEZOGEN
 62
    18
420
        0
370
    18
100
AcDbLine
 10
-151.434106257643
 20
5.114897916261
 30
0.0
 11
-151.283158772508
 21
5.263944408106
 31
0.0
  0
LINE
  5
24A
330
167
100
AcDbEntity
  8
FREI LASSEN
  6
AUSGEZOGEN
 62
    18
420
        0
370
    18
100
AcDbLine
 10
-150.528421346831
 20
6.009176867331
 30
0.0
 11
-150.413211324172
 21
6.122935964988
 31
0.0
  0
LINE
  5
24B
330
167
100
AcDbEntity
  8
FREI LASSEN
  6
AUSGEZOGEN
 62
    18
420
        0
370
    18
100
AcDbLine
 10
-149.018946495477
 20
7.499641785781
 30
0.0
 11
-148.867999010342
 21
7.648688277626
 31
0.0
  0
LINE
  5
24C
330
167
100
AcDbEntity
  8
FREI LASSEN
  6
AUSGEZOGEN
 62
    18
420
        0
370
    18
100
AcDbLine
 10
-148.415156554935
 20
8.095827753161
 30
0.0
 11
-148.2642090698
 21
8.244874245006
 31
0.0
  0
LINE
  5
24D
330
167
100
AcDbEntity
  8
FREI LASSEN
  6
AUSGEZOGEN
 62
    18
420
        0
370
    18
100
AcDbLine
 10
-147.509471644123
 20
8.990106704231
 30
0.0
 11
-147.358524158988
 21
9.139153196076
 31
0.0
  0
LINE
  5
24E
330
167
100
AcDbEntity
  8
FREI LASSEN
  6
AUSGEZOGEN
 62
    18
420
        0
370
    18
100
AcDbLine
 10
-146.905681703581
 20
9.586292671611
 30
0.0
 11
-146.754734218446
 21
9.735339163456
 31
0.0
  0
LINE
  5
24F
330
167
100
AcDbEntity
  8
FREI LASSEN
  6
AUSGEZOGEN
 62
    18
420
        0
370
    18
100
AcDbLine
 10
-149.014194012251
 20
8.249626728232
 30
0.0
 11
-148.863246527116
 21
8.398673220077
 31
0.0
  0
LINE
  5
250
330
167
100
AcDbEntity
  8
FREI LASSEN
  6
AUSGEZOGEN
 62
    18
420
        0
370
    18
100
AcDbLine
 10
-148.410404071709
 20
8.845812695612
 30
0.0
 11
-148.259456586574
 21
8.994859187457
 31
0.0
  0
LINE
  5
251
330
167
100
AcDbEntity
  8
FREI LASSEN
  6
AUSGEZOGEN
 62
    18
420
        0
370
    18
100
AcDbLine
 10
-147.504719160897
 20
9.740091646682
 30
0.0
 11
-147.353771675762
 21
9.889138138527
 31
0.0
  0
LINE
  5
252
330
167
100
AcDbEntity
  8
FREI LASSEN
  6
AUSGEZOGEN
 62
    18
420
        0
370
    18
100
AcDbLine
 10
-149.915126439837
 20
8.105332719613
 30
0.0
 11
-149.764178954702
 21
8.254379211458
 31
0.0
  0
LINE
  5
253
330
167
100
AcDbEntity
  8
FREI LASSEN
  6
AUSGEZOGEN
 62
    18
420
        0
370
    18
100
AcDbLine
 10
-149.009441529025
 20
8.999611670683
 30
0.0
 11
-148.858494043889
 21
9.148658162528
 31
0.0
  0
LINE
  5
254
330
167
100
AcDbEntity
  8
FREI LASSEN
  6
AUSGEZOGEN
 62
    18
420
        0
370
    18
100
AcDbLine
 10
-148.405651588483
 20
9.595797638063
 30
0.0
 11
-148.254704103348
 21
9.744844129908
 31
0.0
  0
LINE
  5
255
330
167
100
AcDbEntity
  8
FREI LASSEN
  6
AUSGEZOGEN
 62
    18
420
        0
370
    18
100
AcDbLine
 10
-150.514163897153
 20
8.259131694684
 30
0.0
 11
-150.363216412017
 21
8.408178186529
 31
0.0
  0
LINE
  5
256
330
167
100
AcDbEntity
  8
FREI LASSEN
  6
AUSGEZOGEN
 62
    18
420
        0
370
    18
100
AcDbLine
 10
-149.910373956611
 20
8.855317662064
 30
0.0
 11
-149.759426471476
 21
9.004364153909
 31
0.0
  0
LINE
  5
257
330
167
100
AcDbEntity
  8
FREI LASSEN
  6
AUSGEZOGEN
 62
    18
420
        0
370
    18
100
AcDbLine
 10
-149.004689045799
 20
9.749596613134
 30
0.0
 11
-148.853741560664
 21
9.898643104979
 31
0.0
  0
LINE
  5
258
330
167
100
AcDbEntity
  8
FREI LASSEN
  6
AUSGEZOGEN
 62
    18
420
        0
370
    18
100
AcDbLine
 10
-150.509411413927
 20
9.009116637135
 30
0.0
 11
-150.358463928791
 21
9.15816312898
 31
0.0
  0
LINE
  5
259
330
167
100
AcDbEntity
  8
FREI LASSEN
  6
AUSGEZOGEN
 62
    18
420
        0
370
    18
100
AcDbLine
 10
-149.905621473385
 20
9.605302604515
 30
0.0
 11
-149.75467398825
 21
9.75434909636
 31
0.0
  0
LINE
  5
25A
330
167
100
AcDbEntity
  8
FREI LASSEN
  6
AUSGEZOGEN
 62
    18
420
        0
370
    18
100
AcDbLine
 10
-151.410343841513
 20
8.864822628516
 30
0.0
 11
-151.259396356378
 21
9.013869120361
 31
0.0
  0
LINE
  5
25B
330
167
100
AcDbEntity
  8
FREI LASSEN
  6
AUSGEZOGEN
 62
    18
420
        0
370
    18
100
AcDbLine
 10
-150.504658930701
 20
9.759101579586
 30
0.0
 11
-150.353711445565
 21
9.908148071431
 31
0.0
  0
LINE
  5
25C
330
167
100
AcDbEntity
  8
FREI LASSEN
  6
AUSGEZOGEN
 62
    18
420
        0
370
    18
100
AcDbLine
 10
-151.371103500212
 20
9.648861097945
 30
0.0
 11
-151.254643873152
 21
9.763854062812
 31
0.0
  0
ENDBLK
  5
169
330
167
100
AcDbEntity
  8
0
100
AcDbBlockEnd
  0
ENDSEC
  0
SECTION
  2
ENTITIES
  0
LINE
  5
73
330
1F
100
AcDbEntity
  8
FREI LASSEN
  6
DIVIDE
 62
    18
420
        0
370
    18
100
AcDbLine
 10
-207.874015748031
 20
-164.944918813413
 30
0.0
 11
-207.874015748031
 21
-67.343841787878
 31
0.0
  0
LINE
  5
74
330
1F
100
AcDbEntity
  8
FREI LASSEN
  6
AUSGEZOGEN
 62
    18
420
        0
370
    18
100
AcDbLine
 10
-357.874015748031
 20
0.055081186587
 30
0.0
 11
-357.874015748031
 21
3.055081186586
 31
0.0
  0
LINE
  5
75
330
1F
100
AcDbEntity
  8
FREI LASSEN
  6
DASHED
 62
    18
420
        0
370
    18
100
AcDbLine
 10
-265.024015748031
 20
3.055081186586
 30
0.0
 11
-150.724015748031
 21
3.055081186586
 31
0.0
  0
LINE
  5
76
330
1F
100
AcDbEntity
  8
FREI LASSEN
  6
AUSGEZOGEN
 62
    18
420
        0
370
    18
100
AcDbLine
 10
-357.874015748031
 20
3.055081186586
 30
0.0
 11
-265.024015748031
 21
3.055081186586
 31
0.0
  0
LINE
  5
77
330
1F
100
AcDbEntity
  8
FREI LASSEN
  6
DASHED
 62
    18
420
        0
370
    18
100
AcDbLine
 10
-265.024015748031
 20
0.055081186587
 30
0.0
 11
-150.724015748031
 21
0.055081186587
 31
0.0
  0
LINE
  5
78
330
1F
100
AcDbEntity
  8
FREI LASSEN
  6
AUSGEZOGEN
 62
    18
420
        0
370
    18
100
AcDbLine
 10
-357.874015748031
 20
0.055081186587
 30
0.0
 11
-265.024015748031
 21
0.055081186587
 31
0.0
  0
LINE
  5
79
330
1F
100
AcDbEntity
  8
FREI LASSEN
  6
AUSGEZOGEN
 62
    18
420
        0
370
    18
100
AcDbLine
 10
-267.874015748031
 20
0.055081186587
 30
0.0
 11
-267.874015748031
 21
3.055081186586
 31
0.0
  0
LINE
  5
7A
330
1F
100
AcDbEntity
  8
FREI LASSEN
  6
AUSGEZOGEN
 62
    18
420
        0
370
    18
100
AcDbLine
 10
-272.374015748031
 20
-194.944918813414
 30
0.0
 11
-143.374015748031
 21
-194.944918813414
 31
0.0
  0
LINE
  5
7B
330
1F
100
AcDbEntity
  8
FREI LASSEN
  6
AUSGEZOGEN
 62
    18
420
        0
370
    18
100
AcDbLine
 10
-272.374015748031
 20
-196.944918813414
 30
0.0
 11
-272.374015748031
 21
0.055081186587
 31
0.0
  0
LINE
  5
7C
330
1F
100
AcDbEntity
  8
FREI LASSEN
  6
AUSGEZOGEN
 62
    18
420
        0
370
    18
100
AcDbLine
 10
-143.374015748031
 20
-196.944918813414
 30
0.0
 11
-143.374015748031
 21
0.059244770658
 31
0.0
  0
LINE
  5
7D
330
1F
100
AcDbEntity
  8
FREI LASSEN
  6
AUSGEZOGEN
 62
    18
420
        0
370
    18
100
AcDbLine
 10
-272.374015748031
 20
-196.944918813414
 30
0.0
 11
-143.374015748031
 21
-196.944918813414
 31
0.0
  0
LINE
  5
7E
330
1F
100
AcDbEntity
  8
FREI LASSEN
  6
AUSGEZOGEN
 62
    18
420
        0
370
    18
100
AcDbLine
 10
-145.636418224073
 20
-99.944918813413
 30
0.0
 11
-143.374015748031
 21
-99.944918813413
 31
0.0
  0
LINE
  5
7F
330
1F
100
AcDbEntity
  8
FREI LASSEN
  6
AUSGEZOGEN
 62
    18
420
        0
370
    18
100
AcDbLine
 10
-270.374015748031
 20
-99.538340102087
 30
0.0
 11
-270.374015748031
 21
0.055081186587
 31
0.0
  0
ARC
  5
80
330
1F
100
AcDbEntity
  8
FREI LASSEN
  6
AUSGEZOGEN
 62
    18
420
        0
370
    18
100
AcDbCircle
 10
-207.874015748031
 20
-174.944918813413
 30
0.0
 40
20.0
100
AcDbArc
 50
201.951637994782
 51
335.764708816419
  0
ARC
  5
81
330
1F
100
AcDbEntity
  8
FREI LASSEN
  6
AUSGEZOGEN
 62
    18
420
        0
370
    18
100
AcDbCircle
 10
-207.874015748031
 20
-174.944918813413
 30
0.0
 40
22.0
100
AcDbArc
 50
202.230345245906
 51
335.595537372069
  0
LINE
  5
82
330
1F
100
AcDbEntity
  8
FREI LASSEN
  6
AUSGEZOGEN
 62
    18
420
        0
370
    18
100
AcDbLine
 10
-143.374015748031
 20
-99.944918813413
 30
0.0
 11
-189.082745440693
 21
-186.38555516969
 31
0.0
  0
LINE
  5
83
330
1F
100
AcDbEntity
  8
FREI LASSEN
  6
AUSGEZOGEN
 62
    18
420
        0
370
    18
100
AcDbLine
 10
-272.409838516856
 20
-99.968243387255
 30
0.0
 11
-226.189659383617
 21
-187.132502586018
 31
0.0
  0
LINE
  5
84
330
1F
100
AcDbEntity
  8
FREI LASSEN
  6
AUSGEZOGEN
 62
    18
420
        0
370
    18
100
AcDbLine
 10
-145.376979373675
 20
-99.454289135567
 30
0.0
 11
-190.850777451955
 21
-185.450641907857
 31
0.0
  0
LINE
  5
85
330
1F
100
AcDbEntity
  8
FREI LASSEN
  6
AUSGEZOGEN
 62
    18
420
        0
370
    18
100
AcDbLine
 10
-270.374015748031
 20
-99.538340102087
 30
0.0
 11
-224.422707561728
 21
-186.195549407292
 31
0.0
  0
LINE
  5
86
330
1F
100
AcDbEntity
  8
FREI LASSEN
  6
AUSGEZOGEN
 62
    18
420
        0
370
    18
100
AcDbLine
 10
-272.374015748031
 20
-15.444918813414
 30
0.0
 11
-270.374015748031
 21
-15.444918813414
 31
0.0
  0
LINE
  5
87
330
1F
100
AcDbEntity
  8
FREI LASSEN
  6
AUSGEZOGEN
 62
    18
420
        0
370
    18
100
AcDbLine
 10
-209.374015748031
 20
-163.739147447473
 30
0.0
 11
-209.374015748031
 21
-68.043303275111
 31
0.0
  0
LINE
  5
88
330
1F
100
AcDbEntity
  8
FREI LASSEN
  6
AUSGEZOGEN
 62
    18
420
        0
370
    18
100
AcDbLine
 10
-206.374015748031
 20
-164.542995024767
 30
0.0
 11
-206.374015748031
 21
-66.644380300646
 31
0.0
  0
LINE
  5
89
330
1F
100
AcDbEntity
  8
FREI LASSEN
  6
DIVIDE
 62
    18
420
        0
370
    18
100
AcDbLine
 10
-208.945652918972
 20
-65.045708458522
 30
0.0
 11
-270.374015748031
 21
-13.501191864834
 31
0.0
  0
LINE
  5
8A
330
1F
100
AcDbEntity
  8
FREI LASSEN
  6
DIVIDE
 62
    18
420
        0
370
    18
100
AcDbLine
 10
-207.874015748031
 20
-164.944918813413
 30
0.0
 11
-210.760767093979
 21
-169.944918813413
 31
0.0
  0
LINE
  5
8B
330
1F
100
AcDbEntity
  8
FREI LASSEN
  6
AUSGEZOGEN
 62
    18
420
        0
370
    18
100
AcDbLine
 10
-209.775939536678
 20
-165.239147447473
 30
0.0
 11
-211.962206199057
 21
-169.025872385607
 31
0.0
  0
LINE
  5
8C
330
1F
100
AcDbEntity
  8
FREI LASSEN
  6
AUSGEZOGEN
 62
    18
420
        0
370
    18
100
AcDbLine
 10
-206.775939536678
 20
-166.042995024767
 30
0.0
 11
-209.028716286411
 21
-169.944918813413
 31
0.0
  0
LINE
  5
8D
330
1F
100
AcDbEntity
  8
FREI LASSEN
  6
AUSGEZOGEN
 62
    18
420
        0
370
    18
100
AcDbLine
 10
-207.445652918972
 20
-64.346246971289
 30
0.0
 11
-270.374015748031
 21
-11.543080930835
 31
0.0
  0
LINE
  5
8E
330
1F
100
AcDbEntity
  8
FREI LASSEN
  6
AUSGEZOGEN
 62
    18
420
        0
370
    18
100
AcDbLine
 10
-210.445652918972
 20
-65.745169945754
 30
0.0
 11
-270.374015748031
 21
-15.459302798832
 31
0.0
  0
LINE
  5
8F
330
1F
100
AcDbEntity
  8
FREI LASSEN
  6
AUSGEZOGEN
 62
    18
420
        0
370
    18
100
AcDbLine
 10
-208.962206199057
 20
-169.8297199629
 30
0.0
 11
-211.962206199057
 21
-169.025872385607
 31
0.0
  0
ARC
  5
90
330
1F
100
AcDbEntity
  8
FREI LASSEN
  6
AUSGEZOGEN
 62
    18
420
        0
370
    18
100
AcDbCircle
 10
-212.374015748031
 20
-163.739147447473
 30
0.0
 40
3.0
100
AcDbArc
 50
330.0
 51
0.0
  0
ARC
  5
91
330
1F
100
AcDbEntity
  8
FREI LASSEN
  6
AUSGEZOGEN
 62
    18
420
        0
370
    18
100
AcDbCircle
 10
-209.374015748031
 20
-164.542995024767
 30
0.0
 40
3.0
100
AcDbArc
 50
330.0
 51
0.0
  0
ARC
  5
92
330
1F
100
AcDbEntity
  8
FREI LASSEN
  6
AUSGEZOGEN
 62
    18
420
        0
370
    18
100
AcDbCircle
 10
-212.374015748031
 20
-68.043303275111
 30
0.0
 40
3.0
100
AcDbArc
 50
0.0
 51
50.0
  0
ARC
  5
93
330
1F
100
AcDbEntity
  8
FREI LASSEN
  6
AUSGEZOGEN
 62
    18
420
        0
370
    18
100
AcDbCircle
 10
-209.374015748031
 20
-66.644380300646
 30
0.0
 40
3.0
100
AcDbArc
 50
0.0
 51
50.0
  0
ARC
  5
94
330
1F
100
AcDbEntity
  8
FREI LASSEN
  6
AUSGEZOGEN
 62
    18
420
        0
370
    18
100
AcDbCircle
 10
-210.874015748031
 20
-67.343841787878
 30
0.0
 40
3.0
100
AcDbArc
 50
0.0
 51
50.0
  0
LINE
  5
95
330
1F
100
AcDbEntity
  8
FREI LASSEN
  6
AUSGEZOGEN
 62
    18
420
        0
370
    18
100
AcDbLine
 10
-241.218041171827
 20
-39.924070312339
 30
0.0
 11
-239.289678342767
 21
-37.625936982982
 31
0.0
  0
LINE
  5
96
330
1F
100
AcDbEntity
  8
FREI LASSEN
  6
AUSGEZOGEN
 62
    18
420
        0
370
    18
100
AcDbLine
 10
-259.206833863861
 20
-20.913459131132
 30
0.0
 11
-255.350108205741
 21
-16.317192472418
 31
0.0
  0
LINE
  5
97
330
1F
100
AcDbEntity
  8
FREI LASSEN
  6
AUSGEZOGEN
 62
    18
420
        0
370
    18
100
AcDbLine
 10
-219.372522821674
 20
-54.338414834832
 30
0.0
 11
-215.515797163555
 21
-49.742148176119
 31
0.0
  0
LINE
  5
98
330
1F
100
AcDbEntity
  8
FREI LASSEN
  6
AUSGEZOGEN
 62
    18
420
        0
370
    18
100
AcDbLine
 10
-258.422364780479
 20
-27.446039651663
 30
0.0
 11
-255.52982053689
 21
-23.998839657628
 31
0.0
  0
LINE
  5
99
330
1F
100
AcDbEntity
  8
FREI LASSEN
  6
AUSGEZOGEN
 62
    18
420
        0
370
    18
100
AcDbLine
 10
-225.942080392234
 20
-54.700234302372
 30
0.0
 11
-223.049536148645
 21
-51.253034308337
 31
0.0
  0
LINE
  5
9A
330
1F
100
AcDbEntity
  8
FREI LASSEN
  6
AUSGEZOGEN
 62
    18
420
        0
370
    18
100
AcDbLine
 10
-228.055328471443
 20
-54.885119552521
 30
0.0
 11
-258.23747953033
 21
-29.559287730871
 31
0.0
  0
LINE
  5
9B
330
1F
100
AcDbEntity
  8
FREI LASSEN
  6
AUSGEZOGEN
 62
    18
420
        0
370
    18
100
AcDbLine
 10
-215.515797163555
 20
-49.742148176119
 30
0.0
 11
-255.350108205741
 21
-16.317192472418
 31
0.0
  0
LINE
  5
9C
330
1F
100
AcDbEntity
  8
FREI LASSEN
  6
AUSGEZOGEN
 62
    18
420
        0
370
    18
100
AcDbLine
 10
-256.169159533909
 20
-31.294814277025
 30
0.0
 11
-251.991040070947
 21
-26.315525396752
 31
0.0
  0
LINE
  5
9D
330
1F
100
AcDbEntity
  8
FREI LASSEN
  6
AUSGEZOGEN
 62
    18
420
        0
370
    18
100
AcDbLine
 10
-230.123648467864
 20
-53.149593006367
 30
0.0
 11
-225.945529004901
 21
-48.170304126094
 31
0.0
  0
LINE
  5
9E
330
1F
100
AcDbEntity
  8
FREI LASSEN
  6
AUSGEZOGEN
 62
    18
420
        0
370
    18
100
AcDbLine
 10
-226.13041425505
 20
-46.057056046886
 30
0.0
 11
-249.877791991738
 21
-26.130640146603
 31
0.0
  0
LINE
  5
9F
330
1F
100
AcDbEntity
  8
FREI LASSEN
  6
AUSGEZOGEN
 62
    18
420
        0
370
    18
100
AcDbLine
 10
-258.422364780479
 20
-27.446039651663
 30
0.0
 11
-258.23747953033
 21
-29.559287730871
 31
0.0
  0
LINE
  5
A0
330
1F
100
AcDbEntity
  8
FREI LASSEN
  6
AUSGEZOGEN
 62
    18
420
        0
370
    18
100
AcDbLine
 10
-228.055328471443
 20
-54.885119552521
 30
0.0
 11
-225.942080392234
 21
-54.700234302372
 31
0.0
  0
LINE
  5
A1
330
1F
100
AcDbEntity
  8
FREI LASSEN
  6
AUSGEZOGEN
 62
    18
420
        0
370
    18
100
AcDbLine
 10
-225.945529004901
 20
-48.170304126094
 30
0.0
 11
-226.13041425505
 21
-46.057056046886
 31
0.0
  0
LINE
  5
A2
330
1F
100
AcDbEntity
  8
FREI LASSEN
  6
AUSGEZOGEN
 62
    18
420
        0
370
    18
100
AcDbLine
 10
-251.991040070947
 20
-26.315525396752
 30
0.0
 11
-249.877791991738
 21
-26.130640146603
 31
0.0
  0
HATCH
  5
A3
330
1F
100
AcDbEntity
  8
FREI LASSEN
  6
AUSGEZOGEN
 62
    18
420
        0
370
    18
100
AcDbHatch
 10
0.0
 20
0.0
 30
0.0
210
0.0
220
0.0
230
1.0
  2
MegaCAD_TYP12
 70
     0
 71
     0
 91
        1
 92
        2
 72
     0
 73
     1
 93
       10
 10
-255.3501082057413
 20
-16.3171924724185
 10
-259.2068338638606
 20
-20.91345913113236
 10
-252.3124338757898
 20
-26.69854761831127
 10
-251.9910400709466
 20
-26.31552539675178
 10
-249.8777919917382
 20
-26.1306401466031
 10
-226.1304142550499
 20
-46.05705604688583
 10
-225.9455290049013
 20
-48.17030412609409
 10
-226.2669228097446
 20
-48.55332634765358
 10
-219.3725228216738
 20
-54.33841483483246
 10
-215.5157971635545
 20
-49.74214817611858
 97
        0
 75
     0
 76
     1
 52
0.0
 41
0.6
 77
     0
 78
     2
 53
45.0
 43
0.0
 44
0.0
 45
-1.272792206135785
 46
1.272792206135785
 79
     0
 53
135.0
 43
0.0
 44
0.0
 45
-1.272792206135785
 46
-1.272792206135785
 79
     0
 98
        0
  0
LINE
  5
A4
330
1F
100
AcDbEntity
  8
FREI LASSEN
  6
AUSGEZOGEN
 62
    18
420
        0
370
    18
100
AcDbLine
 10
-276.374015748031
 20
0.055081186587
 30
0.0
 11
-272.374015748031
 21
-3.944918813413
 31
0.0
  0
LINE
  5
A5
330
1F
100
AcDbEntity
  8
FREI LASSEN
  6
AUSGEZOGEN
 62
    18
420
        0
370
    18
100
AcDbLine
 10
-150.374015748031
 20
-196.944918813414
 30
0.0
 11
-150.374015748031
 21
-194.944918813414
 31
0.0
  0
LINE
  5
A6
330
1F
100
AcDbEntity
  8
FREI LASSEN
  6
AUSGEZOGEN
 62
    18
420
        0
370
    18
100
AcDbLine
 10
-156.374015748031
 20
-196.944918813414
 30
0.0
 11
-156.374015748031
 21
-194.944918813414
 31
0.0
  0
LINE
  5
A7
330
1F
100
AcDbEntity
  8
FREI LASSEN
  6
AUSGEZOGEN
 62
    18
420
        0
370
    18
100
AcDbLine
 10
-265.374015748031
 20
-196.944918813414
 30
0.0
 11
-265.374015748031
 21
-194.944918813414
 31
0.0
  0
LINE
  5
A8
330
1F
100
AcDbEntity
  8
FREI LASSEN
  6
AUSGEZOGEN
 62
    18
420
        0
370
    18
100
AcDbLine
 10
-259.374015748031
 20
-196.944918813414
 30
0.0
 11
-259.374015748031
 21
-194.944918813414
 31
0.0
  0
INSERT
  5
C6
330
1F
100
AcDbEntity
  8
0
100
AcDbBlockReference
  2
DICHTR114_nNn00
 10
0.0
 20
0.0
 30
0.0
  0
LINE
  5
C7
330
1F
100
AcDbEntity
  8
FREI LASSEN
  6
AUSGEZOGEN
 62
    18
420
        0
370
    18
100
AcDbLine
 10
-265.024015748031
 20
-12.944918813413
 30
0.0
 11
-150.724015748031
 21
-12.944918813413
 31
0.0
  0
LINE
  5
C8
330
1F
100
AcDbEntity
  8
FREI LASSEN
  6
AUSGEZOGEN
 62
    18
420
        0
370
    18
100
AcDbLine
 10
-279.874015748031
 20
87.055081186586
 30
0.0
 11
-135.874015748031
 21
87.055081186586
 31
0.0
  0
LINE
  5
C9
330
1F
100
AcDbEntity
  8
FREI LASSEN
  6
AUSGEZOGEN
 62
    18
420
        0
370
    18
100
AcDbLine
 10
-265.024015748031
 20
-12.944918813413
 30
0.0
 11
-265.024015748031
 21
87.055081186586
 31
0.0
  0
LINE
  5
CA
330
1F
100
AcDbEntity
  8
FREI LASSEN
  6
AUSGEZOGEN
 62
    18
420
        0
370
    18
100
AcDbLine
 10
-150.724015748031
 20
-12.944918813413
 30
0.0
 11
-150.724015748031
 21
87.055081186586
 31
0.0
  0
LINE
  5
CB
330
1F
100
AcDbEntity
  8
FREI LASSEN
  6
AUSGEZOGEN
 62
    18
420
        0
370
    18
100
AcDbLine
 10
-282.874015748031
 20
103.055081186586
 30
0.0
 11
-132.874015748031
 21
103.055081186586
 31
0.0
  0
LINE
  5
CC
330
1F
100
AcDbEntity
  8
FREI LASSEN
  6
AUSGEZOGEN
 62
    18
420
        0
370
    18
100
AcDbLine
 10
-282.874015748031
 20
90.055081186586
 30
0.0
 11
-282.874015748031
 21
103.055081186586
 31
0.0
  0
LINE
  5
CD
330
1F
100
AcDbEntity
  8
FREI LASSEN
  6
AUSGEZOGEN
 62
    18
420
        0
370
    18
100
AcDbLine
 10
-132.874015748031
 20
90.055081186586
 30
0.0
 11
-132.874015748031
 21
103.055081186586
 31
0.0
  0
LINE
  5
CE
330
1F
100
AcDbEntity
  8
FREI LASSEN
  6
AUSGEZOGEN
 62
    18
420
        0
370
    18
100
AcDbLine
 10
-151.724015748031
 20
-12.944918813413
 30
0.0
 11
-151.724015748031
 21
87.555081186586
 31
0.0
  0
LINE
  5
CF
330
1F
100
AcDbEntity
  8
FREI LASSEN
  6
AUSGEZOGEN
 62
    18
420
        0
370
    18
100
AcDbLine
 10
-264.024015748031
 20
-12.944918813413
 30
0.0
 11
-264.024015748031
 21
87.555081186586
 31
0.0
  0
LINE
  5
D0
330
1F
100
AcDbEntity
  8
FREI LASSEN
  6
AUSGEZOGEN
 62
    18
420
        0
370
    18
100
AcDbLine
 10
-150.724015748031
 20
88.555081186587
 30
0.0
 11
-135.874015748031
 21
88.555081186587
 31
0.0
  0
LINE
  5
D1
330
1F
100
AcDbEntity
  8
FREI LASSEN
  6
AUSGEZOGEN
 62
    18
420
        0
370
    18
100
AcDbLine
 10
-134.374015748031
 20
90.055081186586
 30
0.0
 11
-134.374015748031
 21
103.055081186586
 31
0.0
  0
LINE
  5
D2
330
1F
100
AcDbEntity
  8
FREI LASSEN
  6
AUSGEZOGEN
 62
    18
420
        0
370
    18
100
AcDbLine
 10
-281.374015748031
 20
90.055081186586
 30
0.0
 11
-281.374015748031
 21
103.055081186586
 31
0.0
  0
LINE
  5
D3
330
1F
100
AcDbEntity
  8
FREI LASSEN
  6
AUSGEZOGEN
 62
    18
420
        0
370
    18
100
AcDbLine
 10
-279.874015748031
 20
88.555081186587
 30
0.0
 11
-265.024015748031
 21
88.555081186587
 31
0.0
  0
ARC
  5
D4
330
1F
100
AcDbEntity
  8
FREI LASSEN
  6
AUSGEZOGEN
 62
    18
420
        0
370
    18
100
AcDbCircle
 10
-135.874015748031
 20
90.055081186586
 30
0.0
 40
1.5
100
AcDbArc
 50
270.0
 51
0.0
  0
ARC
  5
D5
330
1F
100
AcDbEntity
  8
FREI LASSEN
  6
AUSGEZOGEN
 62
    18
420
        0
370
    18
100
AcDbCircle
 10
-279.874015748031
 20
90.055081186586
 30
0.0
 40
1.5
100
AcDbArc
 50
180.0
 51
270.0
  0
ARC
  5
D6
330
1F
100
AcDbEntity
  8
FREI LASSEN
  6
AUSGEZOGEN
 62
    18
420
        0
370
    18
100
AcDbCircle
 10
-279.874015748031
 20
90.055081186586
 30
0.0
 40
3.0
100
AcDbArc
 50
180.0
 51
270.0
  0
ARC
  5
D7
330
1F
100
AcDbEntity
  8
FREI LASSEN
  6
AUSGEZOGEN
 62
    18
420
        0
370
    18
100
AcDbCircle
 10
-135.874015748031
 20
90.055081186586
 30
0.0
 40
3.0
100
AcDbArc
 50
270.0
 51
0.0
  0
ARC
  5
D8
330
1F
100
AcDbEntity
  8
FREI LASSEN
  6
AUSGEZOGEN
 62
    18
420
        0
370
    18
100
AcDbCircle
 10
-150.724015748031
 20
87.555081186586
 30
0.0
 40
0.9999999999999998
100
AcDbArc
 50
90.0
 51
180.0
  0
ARC
  5
D9
330
1F
100
AcDbEntity
  8
FREI LASSEN
  6
AUSGEZOGEN
 62
    18
420
        0
370
    18
100
AcDbCircle
 10
-265.024015748031
 20
87.555081186586
 30
0.0
 40
0.9999999999999998
100
AcDbArc
 50
0.0
 51
90.0
  0
LINE
  5
DA
330
1F
100
AcDbEntity
  8
FREI LASSEN
  6
AUSGEZOGEN
 62
    18
420
        0
370
    18
100
AcDbLine
 10
-134.874015748031
 20
88.937047197837
 30
0.0
 11
-134.874015748031
 21
98.555081186587
 31
0.0
  0
LINE
  5
DB
330
1F
100
AcDbEntity
  8
FREI LASSEN
  6
AUSGEZOGEN
 62
    18
420
        0
370
    18
100
AcDbLine
 10
-280.874015748031
 20
88.937047197837
 30
0.0
 11
-280.874015748031
 21
98.555081186587
 31
0.0
  0
LINE
  5
DC
330
1F
100
AcDbEntity
  8
FREI LASSEN
  6
AUSGEZOGEN
 62
    18
420
        0
370
    18
100
AcDbLine
 10
-278.874015748031
 20
88.555081186587
 30
0.0
 11
-278.874015748031
 21
98.555081186587
 31
0.0
  0
LINE
  5
DD
330
1F
100
AcDbEntity
  8
FREI LASSEN
  6
AUSGEZOGEN
 62
    18
420
        0
370
    18
100
AcDbLine
 10
-136.874015748031
 20
88.555081186587
 30
0.0
 11
-136.874015748031
 21
98.555081186587
 31
0.0
  0
LINE
  5
DE
330
1F
100
AcDbEntity
  8
FREI LASSEN
  6
AUSGEZOGEN
 62
    18
420
        0
370
    18
100
AcDbLine
 10
-276.874015748031
 20
102.555081186586
 30
0.0
 11
-138.874015748031
 21
102.555081186586
 31
0.0
  0
LINE
  5
DF
330
1F
100
AcDbEntity
  8
FREI LASSEN
  6
AUSGEZOGEN
 62
    18
420
        0
370
    18
100
AcDbLine
 10
-276.874015748031
 20
100.555081186586
 30
0.0
 11
-138.874015748031
 21
100.555081186586
 31
0.0
  0
ARC
  5
E0
330
1F
100
AcDbEntity
  8
FREI LASSEN
  6
AUSGEZOGEN
 62
    18
420
        0
370
    18
100
AcDbCircle
 10
-138.874015748031
 20
98.555081186587
 30
0.0
 40
2.0
100
AcDbArc
 50
0.0
 51
90.0
  0
ARC
  5
E1
330
1F
100
AcDbEntity
  8
FREI LASSEN
  6
AUSGEZOGEN
 62
    18
420
        0
370
    18
100
AcDbCircle
 10
-276.874015748031
 20
98.555081186587
 30
0.0
 40
2.0
100
AcDbArc
 50
90.0
 51
180.0
  0
ARC
  5
E2
330
1F
100
AcDbEntity
  8
FREI LASSEN
  6
AUSGEZOGEN
 62
    18
420
        0
370
    18
100
AcDbCircle
 10
-276.874015748031
 20
98.555081186587
 30
0.0
 40
3.999999999999999
100
AcDbArc
 50
90.0
 51
180.0
  0
ARC
  5
E3
330
1F
100
AcDbEntity
  8
FREI LASSEN
  6
AUSGEZOGEN
 62
    18
420
        0
370
    18
100
AcDbCircle
 10
-138.874015748031
 20
98.555081186587
 30
0.0
 40
3.999999999999999
100
AcDbArc
 50
0.0
 51
90.0
  0
LINE
  5
E4
330
1F
100
AcDbEntity
  8
FREI LASSEN
  6
AUSGEZOGEN
 62
    18
420
        0
370
    18
100
AcDbLine
 10
-214.374015748031
 20
100.555081186586
 30
0.0
 11
-214.374015748031
 21
102.555081186586
 31
0.0
  0
LINE
  5
E5
330
1F
100
AcDbEntity
  8
FREI LASSEN
  6
AUSGEZOGEN
 62
    18
420
        0
370
    18
100
AcDbLine
 10
-201.374015748031
 20
100.555081186586
 30
0.0
 11
-201.374015748031
 21
102.555081186586
 31
0.0
  0
LINE
  5
E6
330
1F
100
AcDbEntity
  8
FREI LASSEN
  6
AUSGEZOGEN
 62
    18
420
        0
370
    18
100
AcDbLine
 10
-193.374015748031
 20
100.555081186586
 30
0.0
 11
-193.374015748031
 21
102.555081186586
 31
0.0
  0
LINE
  5
E7
330
1F
100
AcDbEntity
  8
FREI LASSEN
  6
AUSGEZOGEN
 62
    18
420
        0
370
    18
100
AcDbLine
 10
-222.374015748031
 20
100.555081186586
 30
0.0
 11
-222.374015748031
 21
102.555081186586
 31
0.0
  0
LINE
  5
E8
330
1F
100
AcDbEntity
  8
FREI LASSEN
  6
AUSGEZOGEN
 62
    18
420
        0
370
    18
100
AcDbLine
 10
-180.374015748031
 20
100.555081186586
 30
0.0
 11
-180.374015748031
 21
102.555081186586
 31
0.0
  0
LINE
  5
E9
330
1F
100
AcDbEntity
  8
FREI LASSEN
  6
AUSGEZOGEN
 62
    18
420
        0
370
    18
100
AcDbLine
 10
-235.374015748031
 20
100.555081186586
 30
0.0
 11
-235.374015748031
 21
102.555081186586
 31
0.0
  0
LINE
  5
EA
330
1F
100
AcDbEntity
  8
FREI LASSEN
  6
AUSGEZOGEN
 62
    18
420
        0
370
    18
100
AcDbLine
 10
-172.374015748031
 20
100.555081186586
 30
0.0
 11
-172.374015748031
 21
102.555081186586
 31
0.0
  0
LINE
  5
EB
330
1F
100
AcDbEntity
  8
FREI LASSEN
  6
AUSGEZOGEN
 62
    18
420
        0
370
    18
100
AcDbLine
 10
-243.374015748031
 20
100.555081186586
 30
0.0
 11
-243.374015748031
 21
102.555081186586
 31
0.0
  0
LINE
  5
EC
330
1F
100
AcDbEntity
  8
FREI LASSEN
  6
AUSGEZOGEN
 62
    18
420
        0
370
    18
100
AcDbLine
 10
-159.374015748031
 20
100.555081186586
 30
0.0
 11
-159.374015748031
 21
102.555081186586
 31
0.0
  0
LINE
  5
ED
330
1F
100
AcDbEntity
  8
FREI LASSEN
  6
AUSGEZOGEN
 62
    18
420
        0
370
    18
100
AcDbLine
 10
-256.374015748031
 20
100.555081186586
 30
0.0
 11
-256.374015748031
 21
102.555081186586
 31
0.0
  0
LINE
  5
EE
330
1F
100
AcDbEntity
  8
FREI LASSEN
  6
AUSGEZOGEN
 62
    18
420
        0
370
    18
100
AcDbLine
 10
-151.374015748031
 20
100.555081186586
 30
0.0
 11
-151.374015748031
 21
102.555081186586
 31
0.0
  0
LINE
  5
EF
330
1F
100
AcDbEntity
  8
FREI LASSEN
  6
AUSGEZOGEN
 62
    18
420
        0
370
    18
100
AcDbLine
 10
-264.374015748031
 20
100.555081186586
 30
0.0
 11
-264.374015748031
 21
102.555081186586
 31
0.0
  0
HATCH
  5
F0
330
1F
100
AcDbEntity
  8
FREI LASSEN
  6
AUSGEZOGEN
 62
    18
420
        0
370
    18
100
AcDbHatch
 10
0.0
 20
0.0
 30
0.0
210
0.0
220
0.0
230
1.0
  2
MegaCAD_TYP12
 70
     0
 71
     0
 91
        1
 92
        2
 72
     1
 73
     1
 93
       14
 10
-151.7240157480314
 20
87.05508118658645
 42
-0.3249358518977111
 10
-150.7240157480313
 20
88.5550811865865
 42
0.0
 10
-136.8740157480315
 20
88.55508118658639
 42
0.0
 10
-135.8740157480314
 20
88.55508118658639
 42
0.1844830881382535
 10
-134.8740157480315
 20
88.93704719783659
 42
0.2134217652834322
 10
-134.3740157480314
 20
90.05508118658639
 42
-0.4142135623731065
 10
-135.8740157480314
 20
88.55508118658639
 42
0.0
 10
-150.7240157480313
 20
88.5550811865865
 42
0.414213562373071
 10
-151.7240157480314
 20
87.55508118658645
 42
0.0
 10
-151.7240157480314
 20
87.05508118658645
 42
0.0
 10
-135.8740157480314
 20
87.05508118658645
 42
0.4142135623731047
 10
-132.8740157480315
 20
90.05508118658645
 42
-0.4142135623731048
 10
-135.8740157480314
 20
87.05508118658645
 42
0.0
 10
-150.7240157480314
 20
87.05508118658645
 42
0.0
 97
        0
 75
     0
 76
     1
 52
0.0
 41
0.5
 77
     0
 78
     2
 53
45.0
 43
0.0
 44
0.0
 45
-1.060660171779821
 46
1.060660171779821
 79
     0
 53
135.0
 43
0.0
 44
0.0
 45
-1.060660171779821
 46
-1.060660171779821
 79
     0
 98
        0
  0
INSERT
  5
100
330
1F
100
AcDbEntity
  8
0
100
AcDbBlockReference
  2
Hintereinlauf_nNn01
 10
0.0
 20
0.0
 30
0.0
  0
HATCH
  5
101
330
1F
100
AcDbEntity
  8
FREI LASSEN
  6
AUSGEZOGEN
 62
    18
420
        0
370
    18
100
AcDbHatch
 10
0.0
 20
0.0
 30
0.0
210
0.0
220
0.0
230
1.0
  2
SOLID
 70
     1
 71
     0
 91
        1
 92
        2
 72
     1
 73
     1
 93
        9
 10
-264.3740157480314
 20
100.5550811865864
 42
0.0
 10
-264.3740157480314
 20
102.5550811865864
 42
0.0
 10
-276.8740157480314
 20
102.5550811865864
 42
0.4142135623730833
 10
-280.8740157480315
 20
98.55508118658639
 42
0.0
 10
-280.8740157480315
 20
88.93704719783659
 42
0.1844830881382334
 10
-279.8740157480314
 20
88.5550811865865
 42
0.0
 10
-278.8740157480314
 20
88.55508118658639
 42
0.0
 10
-278.8740157480314
 20
98.55508118658639
 42
-0.4142135623731005
 10
-276.8740157480314
 20
100.5550811865864
 42
0.0
 97
        0
 75
     0
 76
     1
 98
        0
  0
HATCH
  5
102
330
1F
100
AcDbEntity
  8
FREI LASSEN
  6
AUSGEZOGEN
 62
    18
420
        0
370
    18
100
AcDbHatch
 10
0.0
 20
0.0
 30
0.0
210
0.0
220
0.0
230
1.0
  2
SOLID
 70
     1
 71
     0
 91
        6
 92
        2
 72
     0
 73
     1
 93
        4
 10
-256.3740157480314
 20
102.5550811865864
 10
-256.3740157480314
 20
100.5550811865864
 10
-243.3740157480315
 20
100.5550811865864
 10
-243.3740157480315
 20
102.5550811865864
 97
        0
 92
        2
 72
     0
 73
     1
 93
        4
 10
-222.3740157480315
 20
100.5550811865864
 10
-222.3740157480312
 20
102.5550811865864
 10
-235.3740157480314
 20
102.5550811865864
 10
-235.3740157480315
 20
100.5550811865864
 97
        0
 92
        2
 72
     0
 73
     1
 93
        4
 10
-207.8740157480315
 20
100.5550811865864
 10
-207.8740157480314
 20
102.5550811865864
 10
-214.3740157480314
 20
102.5550811865864
 10
-214.3740157480314
 20
100.5550811865864
 97
        0
 92
        2
 72
     0
 73
     1
 93
        4
 10
-201.3740157480315
 20
100.5550811865864
 10
-201.3740157480314
 20
102.5550811865864
 10
-207.8740157480314
 20
102.5550811865864
 10
-207.8740157480315
 20
100.5550811865864
 97
        0
 92
        2
 72
     0
 73
     1
 93
        4
 10
-180.3740157480314
 20
100.5550811865864
 10
-180.3740157480314
 20
102.5550811865864
 10
-193.3740157480315
 20
102.5550811865864
 10
-193.3740157480315
 20
100.5550811865864
 97
        0
 92
        2
 72
     0
 73
     1
 93
        4
 10
-159.3740157480314
 20
100.5550811865864
 10
-159.3740157480314
 20
102.5550811865864
 10
-172.3740157480314
 20
102.5550811865864
 10
-172.3740157480315
 20
100.5550811865864
 97
        0
 75
     0
 76
     1
 98
        0
  0
HATCH
  5
103
330
1F
100
AcDbEntity
  8
FREI LASSEN
  6
AUSGEZOGEN
 62
    18
420
        0
370
    18
100
AcDbHatch
 10
0.0
 20
0.0
 30
0.0
210
0.0
220
0.0
230
1.0
  2
SOLID
 70
     1
 71
     0
 91
        1
 92
        2
 72
     1
 73
     1
 93
        9
 10
-282.8740157480315
 20
90.05508118658639
 42
0.4142135623730884
 10
-279.8740157480314
 20
87.05508118658645
 42
0.0
 10
-264.0240157480314
 20
87.05508118658645
 42
0.0
 10
-264.0240157480313
 20
87.55508118658645
 42
0.414213562373071
 10
-265.0240157480314
 20
88.5550811865865
 42
0.0
 10
-279.8740157480314
 20
88.5550811865865
 42
-0.4142135623730891
 10
-281.3740157480315
 20
90.05508118658645
 42
0.0
 10
-281.3740157480314
 20
103.0550811865864
 42
0.0
 10
-282.8740157480315
 20
103.0550811865864
 42
0.0
 97
        0
 75
     0
 76
     1
 98
        0
  0
HATCH
  5
104
330
1F
100
AcDbEntity
  8
FREI LASSEN
  6
AUSGEZOGEN
 62
    18
420
        0
370
    18
100
AcDbHatch
 10
0.0
 20
0.0
 30
0.0
210
0.0
220
0.0
230
1.0
  2
SOLID
 70
     1
 71
     0
 91
        1
 92
        2
 72
     1
 73
     1
 93
       10
 10
-265.0240157480314
 20
10.10003630277419
 42
-0.3540265704470631
 10
-264.226065447325
 20
9.126993535607426
 42
-0.3575960332523713
 10
-265.0240157480314
 20
8.14127747983801
 42
0.0
 10
-265.0240157480314
 20
6.105004997912602
 42
-0.361305758279669
 10
-264.2007188701196
 20
5.127073842535566
 42
-0.3648918201500089
 10
-265.0240157480314
 20
4.136469398555903
 42
0.0
 10
-265.0240157480314
 20
3.055081186586449
 42
0.0
 10
-264.0240157480313
 20
3.055081186586449
 42
0.0
 10
-264.0240157480314
 20
87.05508118658645
 42
0.0
 10
-265.0240157480314
 20
87.05508118658645
 42
0.0
 97
        0
 75
     0
 76
     1
 98
        0
  0
HATCH
  5
105
330
1F
100
AcDbEntity
  8
FREI LASSEN
  6
AUSGEZOGEN
 62
    18
420
        0
370
    18
100
AcDbHatch
 10
0.0
 20
0.0
 30
0.0
210
0.0
220
0.0
230
1.0
  2
SOLID
 70
     1
 71
     0
 91
        1
 92
        2
 72
     1
 73
     1
 93
        9
 10
-138.8740157480314
 20
100.5550811865864
 42
-0.4142135623731122
 10
-136.8740157480314
 20
98.5550811865865
 42
0.0
 10
-136.8740157480315
 20
88.55508118658639
 42
0.0
 10
-135.8740157480314
 20
88.55508118658639
 42
0.1844830881382535
 10
-134.8740157480315
 20
88.93704719783659
 42
0.0
 10
-134.8740157480315
 20
98.5550811865865
 42
0.414213562373108
 10
-138.8740157480314
 20
102.5550811865864
 42
0.0
 10
-151.3740157480314
 20
102.5550811865864
 42
0.0
 10
-151.3740157480314
 20
100.5550811865864
 42
0.0
 97
        0
 75
     0
 76
     1
 98
        0
  0
HATCH
  5
106
330
1F
100
AcDbEntity
  8
FREI LASSEN
  6
AUSGEZOGEN
 62
    18
420
        0
370
    18
100
AcDbHatch
 10
0.0
 20
0.0
 30
0.0
210
0.0
220
0.0
230
1.0
  2
SOLID
 70
     1
 71
     0
 91
        1
 92
        2
 72
     1
 73
     1
 93
        9
 10
-135.8740157480314
 20
87.05508118658645
 42
0.4142135623731047
 10
-132.8740157480315
 20
90.05508118658645
 42
0.0
 10
-132.8740157480315
 20
103.0550811865864
 42
0.0
 10
-134.3740157480314
 20
103.0550811865864
 42
0.0
 10
-134.3740157480314
 20
90.05508118658639
 42
-0.4142135623731065
 10
-135.8740157480314
 20
88.55508118658639
 42
0.0
 10
-150.7240157480313
 20
88.5550811865865
 42
0.414213562373071
 10
-151.7240157480314
 20
87.55508118658645
 42
0.0
 10
-151.7240157480314
 20
87.05508118658645
 42
0.0
 97
        0
 75
     0
 76
     1
 98
        0
  0
HATCH
  5
107
330
1F
100
AcDbEntity
  8
FREI LASSEN
  6
AUSGEZOGEN
 62
    18
420
        0
370
    18
100
AcDbHatch
 10
0.0
 20
0.0
 30
0.0
210
0.0
220
0.0
230
1.0
  2
SOLID
 70
     1
 71
     0
 91
        2
 92
        2
 72
     0
 73
     1
 93
        5
 10
-265.0240157480314
 20
-12.94491881341358
 10
-264.0240157480314
 20
-12.94491881341358
 10
-264.0240157480314
 20
0.0550811865865057
 10
-264.8476333806785
 20
0.0550811865865057
 10
-265.0240157480314
 20
-0.6202760925085897
 97
        0
 92
        2
 72
     1
 73
     1
 93
        6
 10
-264.0240157480313
 20
3.055081186586449
 42
0.0
 10
-265.0240157480314
 20
3.055081186586449
 42
0.0
 10
-265.0240157480314
 20
1.933054256241974
 42
-0.3115580112439724
 10
-264.6360003716539
 20
0.8654110131242021
 42
0.0
 10
-264.8476333806785
 20
0.0550811865865057
 42
0.0
 10
-264.0240157480314
 20
0.0550811865865057
 42
0.0
 97
        0
 75
     0
 76
     1
 98
        0
  0
HATCH
  5
108
330
1F
100
AcDbEntity
  8
FREI LASSEN
  6
AUSGEZOGEN
 62
    18
420
        0
370
    18
100
AcDbHatch
 10
0.0
 20
0.0
 30
0.0
210
0.0
220
0.0
230
1.0
  2
SOLID
 70
     1
 71
     0
 91
        2
 92
        2
 72
     1
 73
     1
 93
       11
 10
-209.3740157480314
 20
-163.7391474474734
 42
-0.1316524975873876
 10
-209.775939536678
 20
-165.2391474474734
 42
0.0
 10
-211.9622061990565
 20
-169.0258723856071
 42
0.0
 10
-210.4622061990565
 20
-169.4277961742538
 42
0.0
 10
-207.8740157480314
 20
-164.9449188134135
 42
0.0
 10
-207.8740157480314
 20
-67.34384178787852
 42
0.2216946626429339
 10
-208.9456529189718
 20
-65.04570845852155
 42
0.0
 10
-224.0137175631746
 20
-52.40210097301554
 42
0.0
 10
-224.9778989777045
 20
-53.55116763769398
 42
0.0
 10
-210.4456529189717
 20
-65.74516994575404
 42
-0.2216946626429387
 10
-209.3740157480314
 20
-68.043303275111
 42
0.0
 97
        0
 92
        2
 72
     1
 73
     1
 93
       11
 10
-207.8740157480314
 20
-164.9449188134135
 42
0.0
 10
-210.4622061990565
 20
-169.4277961742538
 42
0.0
 10
-208.9622061990565
 20
-169.8297199629004
 42
0.0
 10
-206.7759395366781
 20
-166.0429950247668
 42
0.1316524975873874
 10
-206.3740157480314
 20
-164.5429950247668
 42
0.0
 10
-206.3740157480314
 20
-66.644380300646
 42
0.2216946626429345
 10
-207.4456529189718
 20
-64.34624697128905
 42
0.0
 10
-223.0495361486449
 20
-51.25303430833706
 42
0.0
 10
-224.0137175631746
 20
-52.40210097301554
 42
0.0
 10
-208.9456529189718
 20
-65.04570845852156
 42
-0.2216946626429345
 10
-207.8740157480314
 20
-67.34384178787852
 42
0.0
 97
        0
 75
     0
 76
     1
 98
        0
  0
HATCH
  5
109
330
1F
100
AcDbEntity
  8
FREI LASSEN
  6
AUSGEZOGEN
 62
    18
420
        0
370
    18
100
AcDbHatch
 10
0.0
 20
0.0
 30
0.0
210
0.0
220
0.0
230
1.0
  2
SOLID
 70
     1
 71
     0
 91
        3
 92
        2
 72
     0
 73
     1
 93
        4
 10
-265.3740157480314
 20
-196.9449188134136
 10
-265.3740157480314
 20
-194.9449188134135
 10
-272.3740157480314
 20
-194.9449188134136
 10
-272.3740157480314
 20
-196.9449188134136
 97
        0
 92
        2
 72
     0
 73
     1
 93
        4
 10
-156.3740157480314
 20
-196.9449188134136
 10
-156.3740157480314
 20
-194.9449188134136
 10
-259.3740157480314
 20
-194.9449188134136
 10
-259.3740157480314
 20
-196.9449188134136
 97
        0
 92
        2
 72
     0
 73
     1
 93
        4
 10
-143.3740157480315
 20
-196.9449188134136
 10
-143.3740157480315
 20
-194.9449188134135
 10
-150.3740157480314
 20
-194.9449188134136
 10
-150.3740157480314
 20
-196.9449188134136
 97
        0
 75
     0
 76
     1
 98
        0
  0
HATCH
  5
10A
330
1F
100
AcDbEntity
  8
FREI LASSEN
  6
AUSGEZOGEN
 62
    18
420
        0
370
    18
100
AcDbHatch
 10
0.0
 20
0.0
 30
0.0
210
0.0
220
0.0
230
1.0
  2
SOLID
 70
     1
 71
     0
 91
        1
 92
        2
 72
     0
 73
     1
 93
        4
 10
-147.8769793736754
 20
3.059244770657955
 10
-147.8769793736754
 20
0.0592447706580117
 10
-57.8769793736754
 20
0.0592447706580117
 10
-57.8769793736754
 20
3.059244770657955
 97
        0
 75
     0
 76
     1
 98
        0
  0
INSERT
  5
10F
330
1F
100
AcDbEntity
  8
0
100
AcDbBlockReference
  2
Montagefuss Typ 200 G (25mm)_nNn02
 10
0.0
 20
0.0
 30
0.0
  0
LINE
  5
110
330
1F
100
AcDbEntity
  8
FREI LASSEN
  6
AUSGEZOGEN
 62
    18
420
        0
370
    18
100
AcDbLine
 10
-347.374015748031
 20
-98.008885098424
 30
0.0
 11
-347.374015748031
 21
-34.499212267636
 31
0.0
  0
LINE
  5
111
330
1F
100
AcDbEntity
  8
FREI LASSEN
  6
AUSGEZOGEN
 62
    18
420
        0
370
    18
100
AcDbLine
 10
-272.374015748031
 20
-33.190082398019
 30
0.0
 11
-347.374015748031
 21
-34.499212267636
 31
0.0
  0
LINE
  5
112
330
1F
100
AcDbEntity
  8
FREI LASSEN
  6
AUSGEZOGEN
 62
    18
420
        0
370
    18
100
AcDbLine
 10
-272.374015748031
 20
-96.699755228808
 30
0.0
 11
-347.374015748031
 21
-98.008885098424
 31
0.0
  0
LINE
  5
113
330
1F
100
AcDbEntity
  8
FREI LASSEN
  6
AUSGEZOGEN
 62
    18
420
        0
370
    18
100
AcDbLine
 10
-270.374015748031
 20
-35.155476924251
 30
0.0
 11
-347.374015748031
 21
-36.499516923724
 31
0.0
  0
LINE
  5
114
330
1F
100
AcDbEntity
  8
FREI LASSEN
  6
AUSGEZOGEN
 62
    18
420
        0
370
    18
100
AcDbLine
 10
-270.374015748031
 20
-94.664540442863
 30
0.0
 11
-347.408920560906
 21
-96.009189708111
 31
0.0
  0
LINE
  5
115
330
1F
100
AcDbEntity
  8
FREI LASSEN
  6
AUSGEZOGEN
 62
    56
420
  8421376
370
    18
100
AcDbLine
 10
-117.374015748031
 20
-80.094918813414
 30
0.0
 11
-117.374015748031
 21
-13.794918813414
 31
0.0
  0
HATCH
  5
116
330
1F
100
AcDbEntity
  8
FREI LASSEN
  6
AUSGEZOGEN
 62
    18
420
        0
370
    18
100
AcDbHatch
 10
0.0
 20
0.0
 30
0.0
210
0.0
220
0.0
230
1.0
  2
SOLID
 70
     1
 71
     0
 91
        1
 92
        2
 72
     0
 73
     1
 93
        4
 10
-347.3740157480314
 20
-34.49921226763581
 10
-347.3740157480314
 20
-36.49951692372362
 10
-272.3740157480314
 20
-35.19038705410733
 10
-272.3740157480314
 20
-33.19008239801948
 97
        0
 75
     0
 76
     1
 98
        0
  0
HATCH
  5
117
330
1F
100
AcDbEntity
  8
FREI LASSEN
  6
AUSGEZOGEN
 62
    18
420
        0
370
    18
100
AcDbHatch
 10
0.0
 20
0.0
 30
0.0
210
0.0
220
0.0
230
1.0
  2
SOLID
 70
     1
 71
     0
 91
        2
 92
        2
 72
     0
 73
     1
 93
        4
 10
-272.3740157480314
 20
-35.19038705410733
 10
-272.3740157480314
 20
-33.19008239801948
 10
-347.3740157480314
 20
-34.49921226763581
 10
-347.3740157480314
 20
-36.49951692372362
 97
        0
 92
        2
 72
     0
 73
     1
 93
        4
 10
-270.3740157480315
 20
-15.44491881341352
 10
-272.3740157480314
 20
-15.44491881341352
 10
-272.3740157480314
 20
-35.1903870541073
 10
-270.3740157480315
 20
-35.15547692425086
 97
        0
 75
     0
 76
     1
 98
        0
  0
HATCH
  5
118
330
1F
100
AcDbEntity
  8
FREI LASSEN
  6
AUSGEZOGEN
 62
    18
420
        0
370
    18
100
AcDbHatch
 10
0.0
 20
0.0
 30
0.0
210
0.0
220
0.0
230
1.0
  2
SOLID
 70
     1
 71
     0
 91
        2
 92
        2
 72
     0
 73
     1
 93
        4
 10
-270.3740157480315
 20
-13.50119186483352
 10
-270.3740157480315
 20
-15.45930279883189
 10
-257.4581833659491
 20
-26.29697298698471
 10
-256.4940019514194
 20
-25.14790632230627
 97
        0
 92
        2
 72
     0
 73
     1
 93
        4
 10
-270.3740157480315
 20
-11.54308093083515
 10
-270.3740157480315
 20
-13.50119186483352
 10
-256.4940019514194
 20
-25.14790632230628
 10
-255.5298205368896
 20
-23.99883965762783
 97
        0
 75
     0
 76
     1
 98
        0
  0
HATCH
  5
119
330
1F
100
AcDbEntity
  8
FREI LASSEN
  6
AUSGEZOGEN
 62
    18
420
        0
370
    18
100
AcDbHatch
 10
0.0
 20
0.0
 30
0.0
210
0.0
220
0.0
230
1.0
  2
SOLID
 70
     1
 71
     0
 91
        1
 92
        2
 72
     0
 73
     1
 93
        4
 10
-347.3740157480314
 20
-96.00858044233613
 10
-347.3740157480314
 20
-98.00888509842393
 10
-272.3740157480314
 20
-96.6997552288076
 10
-272.3740157480314
 20
-94.69945057271978
 97
        0
 75
     0
 76
     1
 98
        0
  0
HATCH
  5
11A
330
1F
100
AcDbEntity
  8
FREI LASSEN
  6
AUSGEZOGEN
 62
    18
420
        0
370
    18
100
AcDbHatch
 10
0.0
 20
0.0
 30
0.0
210
0.0
220
0.0
230
1.0
  2
SOLID
 70
     1
 71
     0
 91
        1
 92
        2
 72
     1
 73
     1
 93
        9
 10
-217.0391671379429
 20
-194.9449188134136
 42
0.0
 10
-207.8740157480314
 20
-194.9449188134136
 42
-0.2497021841233642
 10
-224.4705088321217
 20
-186.1054034493844
 42
-0.0522661605660134
 10
-226.4240101631354
 20
-182.4213957377146
 42
0.0
 10
-270.3740157480315
 20
-99.53834010208688
 42
0.0
 10
-270.3740157480315
 20
-94.66454044286336
 42
0.0
 10
-272.3740157480314
 20
-94.6994505727198
 42
0.0
 10
-272.3740157480314
 20
-100.0357997049844
 42
0.0
 10
-226.1896593836169
 20
-187.1325025860173
 42
0.1393817445126907
 97
        0
 75
     0
 76
     1
 98
        0
  0
HATCH
  5
11B
330
1F
100
AcDbEntity
  8
FREI LASSEN
  6
AUSGEZOGEN
 62
    18
420
        0
370
    18
100
AcDbHatch
 10
0.0
 20
0.0
 30
0.0
210
0.0
220
0.0
230
1.0
  2
SOLID
 70
     1
 71
     0
 91
        1
 92
        2
 72
     1
 73
     1
 93
        9
 10
-190.8507774519555
 20
-185.4506419078566
 42
0.0
 10
-190.8218258946114
 20
-185.395891074544
 42
-0.260930805831334
 10
-207.8740157480314
 20
-194.9449188134135
 42
0.0
 10
-198.7088643581198
 20
-194.9449188134136
 42
0.1496554490638119
 10
-189.0827454406937
 20
-186.3855551696906
 42
0.0
 10
-143.3740157480315
 20
-99.9449188134135
 42
0.0
 10
-145.6364182240725
 20
-99.9449188134135
 42
0.0
 10
-189.6366667049008
 20
-183.1546142936992
 42
-0.0317235824268894
 10
-190.8218258946114
 20
-185.395891074544
 42
0.0
 97
        0
 75
     0
 76
     1
 98
        0
  0
HATCH
  5
11C
330
1F
100
AcDbEntity
  8
FREI LASSEN
  6
AUSGEZOGEN
 62
    18
420
        0
370
    18
100
AcDbHatch
 10
0.0
 20
0.0
 30
0.0
210
0.0
220
0.0
230
1.0
  2
SOLID
 70
     1
 71
     0
 91
        1
 92
        2
 72
     0
 73
     1
 93
        4
 10
-143.3740157480315
 20
-77.36764608614084
 10
-143.3740157480315
 20
-80.09491881341356
 10
-117.3740157480315
 20
-80.09491881341356
 10
-117.3740157480315
 20
-77.36764608614084
 97
        0
 75
     0
 76
     1
 98
        0
  0
HATCH
  5
11D
330
1F
100
AcDbEntity
  8
FREI LASSEN
  6
AUSGEZOGEN
 62
    18
420
        0
370
    18
100
AcDbHatch
 10
0.0
 20
0.0
 30
0.0
210
0.0
220
0.0
230
1.0
  2
SOLID
 70
     1
 71
     0
 91
        2
 92
        2
 72
     0
 73
     1
 93
        4
 10
-117.3740157480315
 20
-16.5221915406863
 10
-117.3740157480315
 20
-13.79491881341357
 10
-143.3740157480315
 20
-13.79491881341357
 10
-143.3740157480315
 20
-16.5221915406863
 97
        0
 92
        2
 72
     0
 73
     1
 93
        4
 10
-145.3769793736754
 20
-17.88582790432265
 10
-143.3740157480315
 20
-17.88582790432264
 10
-143.3740157480315
 20
0.0592447706580117
 10
-145.3769793736754
 20
0.0592447706580117
 97
        0
 75
     0
 76
     1
 98
        0
  0
HATCH
  5
11E
330
1F
100
AcDbEntity
  8
FREI LASSEN
  6
AUSGEZOGEN
 62
    18
420
        0
370
    18
100
AcDbHatch
 10
0.0
 20
0.0
 30
0.0
210
0.0
220
0.0
230
1.0
  2
SOLID
 70
     1
 71
     0
 91
        1
 92
        2
 72
     0
 73
     1
 93
        3
 10
-143.3740157480315
 20
-3.937791603698059
 10
-139.3769793736754
 20
0.0592447706580117
 10
-143.3740157480315
 20
0.0592447706580117
 97
        0
 75
     0
 76
     1
 98
        0
  0
HATCH
  5
11F
330
1F
100
AcDbEntity
  8
FREI LASSEN
  6
AUSGEZOGEN
 62
    18
420
        0
370
    18
100
AcDbHatch
 10
0.0
 20
0.0
 30
0.0
210
0.0
220
0.0
230
1.0
  2
SOLID
 70
     1
 71
     0
 91
        1
 92
        2
 72
     0
 73
     1
 93
       10
 10
-143.3740157480315
 20
-80.09491881341356
 10
-143.3740157480315
 20
-77.36764608614084
 10
-143.3740157480315
 20
-76.00400972250446
 10
-145.3769793736754
 20
-76.00400972250446
 10
-145.3769793736754
 20
-99.45428913556734
 10
-145.6342165727786
 20
-99.94075522934197
 10
-145.6364182240725
 20
-99.9449188134135
 10
-143.3740157480315
 20
-99.9449188134135
 10
-143.3740157480315
 20
-80.09491881341356
 10
-143.3769793736754
 20
-80.09491881341356
 97
        0
 75
     0
 76
     1
 98
        0
  0
LINE
  5
120
330
1F
100
AcDbEntity
  8
FREI LASSEN
  6
AUSGEZOGEN
 62
    18
420
        0
370
    18
100
AcDbLine
 10
-281.949015748031
 20
87.055081186586
 30
0.0
 11
-272.449015748031
 21
87.055081186586
 31
0.0
  0
LINE
  5
121
330
1F
100
AcDbEntity
  8
FREI LASSEN
  6
AUSGEZOGEN
 62
    18
420
        0
370
    18
100
AcDbLine
 10
-272.461827273129
 20
87.055081186586
 30
0.0
 11
-281.961827273129
 21
87.055081186586
 31
0.0
  0
INSERT
  5
130
330
1F
100
AcDbEntity
  8
0
100
AcDbBlockReference
  2
Montagefuss Typ 200 G (25mm)_001_001_nNn03
 10
0.0
 20
0.0
 30
0.0
  0
LINE
  5
131
330
1F
100
AcDbEntity
  8
FREI LASSEN
  6
AUSGEZOGEN
 62
    18
420
        0
370
    18
100
AcDbLine
 10
-316.299036575454
 20
62.055081186586
 30
0.0
 11
-316.299036575454
 21
63.217871884261
 31
0.0
  0
LINE
  5
132
330
1F
100
AcDbEntity
  8
FREI LASSEN
  6
AUSGEZOGEN
 62
    18
420
        0
370
    18
100
AcDbLine
 10
-311.299036575454
 20
62.055081186586
 30
0.0
 11
-311.299036575454
 21
63.217871884261
 31
0.0
  0
LINE
  5
133
330
1F
100
AcDbEntity
  8
FREI LASSEN
  6
AUSGEZOGEN
 62
    18
420
        0
370
    18
100
AcDbLine
 10
-302.299036575454
 20
62.055081186586
 30
0.0
 11
-302.299036575454
 21
63.217871884261
 31
0.0
  0
HATCH
  5
134
330
1F
100
AcDbEntity
  8
FREI LASSEN
  6
AUSGEZOGEN
 62
    18
420
        0
370
    18
100
AcDbHatch
 10
0.0
 20
0.0
 30
0.0
210
0.0
220
0.0
230
1.0
  2
SOLID
 70
     1
 71
     0
 91
        2
 92
        2
 72
     1
 73
     1
 93
       12
 10
-272.4618272731286
 20
87.05508118658643
 42
0.0
 10
-290.717641226617
 20
87.05508118658643
 42
0.41421356237311
 10
-292.4618272731286
 20
85.3108951400748
 42
0.0
 10
-292.4618272731287
 20
63.79926723309799
 42
-0.4142135623730639
 10
-293.0432226219659
 20
63.21787188426077
 42
0.0
 10
-302.2990365754542
 20
63.21787188426079
 42
0.0
 10
-302.2990365754542
 20
62.05508118658641
 42
0.0
 10
-293.0432226219659
 20
62.05508118658641
 42
0.4142135623731006
 10
-291.2990365754543
 20
63.79926723309799
 42
0.0
 10
-291.2990365754542
 20
85.3108951400748
 42
-0.4142135623730985
 10
-290.717641226617
 20
85.892290488912
 42
0.0
 10
-272.4618272731286
 20
85.892290488912
 42
0.0
 97
        0
 92
        2
 72
     0
 73
     1
 93
        4
 10
-316.2990365754542
 20
63.21787188426079
 10
-316.2990365754542
 20
62.05508118658641
 10
-311.2990365754542
 20
62.05508118658641
 10
-311.2990365754542
 20
63.21787188426079
 97
        0
 75
     0
 76
     1
 98
        0
  0
LINE
  5
135
330
1F
100
AcDbEntity
  8
FREI LASSEN
  6
AUSGEZOGEN
 62
    18
420
        0
370
    18
100
AcDbLine
 10
-133.799015748031
 20
87.055081186586
 30
0.0
 11
-143.299015748031
 21
87.055081186586
 31
0.0
  0
LINE
  5
136
330
1F
100
AcDbEntity
  8
FREI LASSEN
  6
AUSGEZOGEN
 62
    18
420
        0
370
    18
100
AcDbLine
 10
-143.286204222934
 20
87.055081186586
 30
0.0
 11
-133.786204222934
 21
87.055081186586
 31
0.0
  0
INSERT
  5
145
330
1F
100
AcDbEntity
  8
0
100
AcDbBlockReference
  2
Montagefuss Typ 200 G (25mm)_001_001_nNn04
 10
0.0
 20
0.0
 30
0.0
  0
LINE
  5
146
330
1F
100
AcDbEntity
  8
FREI LASSEN
  6
AUSGEZOGEN
 62
    18
420
        0
370
    18
100
AcDbLine
 10
-99.448994920608
 20
62.055081186586
 30
0.0
 11
-99.448994920608
 21
63.217871884261
 31
0.0
  0
LINE
  5
147
330
1F
100
AcDbEntity
  8
FREI LASSEN
  6
AUSGEZOGEN
 62
    18
420
        0
370
    18
100
AcDbLine
 10
-104.448994920608
 20
62.055081186586
 30
0.0
 11
-104.448994920608
 21
63.217871884261
 31
0.0
  0
LINE
  5
148
330
1F
100
AcDbEntity
  8
FREI LASSEN
  6
AUSGEZOGEN
 62
    18
420
        0
370
    18
100
AcDbLine
 10
-113.448994920608
 20
62.055081186586
 30
0.0
 11
-113.448994920608
 21
63.217871884261
 31
0.0
  0
HATCH
  5
149
330
1F
100
AcDbEntity
  8
FREI LASSEN
  6
AUSGEZOGEN
 62
    18
420
        0
370
    18
100
AcDbHatch
 10
0.0
 20
0.0
 30
0.0
210
0.0
220
0.0
230
1.0
  2
SOLID
 70
     1
 71
     0
 91
        2
 92
        2
 72
     1
 73
     1
 93
       12
 10
-143.2862042229341
 20
87.05508118658643
 42
0.0
 10
-125.0303902694457
 20
87.05508118658645
 42
-0.41421356237311
 10
-123.2862042229341
 20
85.31089514007482
 42
0.0
 10
-123.286204222934
 20
63.79926723309799
 42
0.4142135623730639
 10
-122.7048088740968
 20
63.21787188426077
 42
0.0
 10
-113.4489949206085
 20
63.21787188426079
 42
0.0
 10
-113.4489949206085
 20
62.05508118658641
 42
0.0
 10
-122.7048088740968
 20
62.05508118658642
 42
-0.4142135623731006
 10
-124.4489949206084
 20
63.79926723309799
 42
0.0
 10
-124.4489949206085
 20
85.31089514007482
 42
0.4142135623730985
 10
-125.0303902694457
 20
85.89229048891201
 42
0.0
 10
-143.2862042229341
 20
85.892290488912
 42
0.0
 97
        0
 92
        2
 72
     0
 73
     1
 93
        4
 10
-99.44899492060847
 20
63.21787188426079
 10
-99.44899492060847
 20
62.05508118658641
 10
-104.4489949206085
 20
62.05508118658641
 10
-104.4489949206085
 20
63.21787188426079
 97
        0
 75
     0
 76
     1
 98
        0
  0
LINE
  5
14A
330
1F
100
AcDbEntity
  8
FREI LASSEN
  6
AUSGEZOGEN
 62
    18
420
        0
370
    18
100
AcDbLine
 10
-147.874015748031
 20
0.055081186587
 30
0.0
 11
-147.874015748031
 21
3.055081186586
 31
0.0
  0
INSERT
  5
25E
330
1F
100
AcDbEntity
  8
0
100
AcDbBlockReference
  2
DICHTR114_nNn05
 10
0.0
 20
0.0
 30
0.0
  0
HATCH
  5
25F
330
1F
100
AcDbEntity
  8
FREI LASSEN
  6
AUSGEZOGEN
 62
    18
420
        0
370
    18
100
AcDbHatch
 10
0.0
 20
0.0
 30
0.0
210
0.0
220
0.0
230
1.0
  2
SOLID
 70
     1
 71
     0
 91
        3
 92
        2
 72
     1
 73
     1
 93
        6
 10
-267.8740157480314
 20
0.1036966138085373
 42
0.0
 10
-267.8740157480314
 20
3.055081186586449
 42
0.0
 10
-357.8740157480312
 20
3.055081186586449
 42
0.0
 10
-357.8740157480312
 20
0.0550811865865057
 42
0.0
 10
-268.8903856802855
 20
0.0550811865865057
 42
-0.1037877149026902
 10
-268.6896708293734
 20
0.098527993916514
 42
0.0
 97
        0
 92
        2
 72
     0
 73
     1
 93
        3
 10
-272.3740157480314
 20
0.0550811865865057
 10
-276.3740157480314
 20
0.0550811865865057
 10
-272.3740157480314
 20
-3.944918813413494
 97
        0
 92
        2
 72
     0
 73
     1
 93
        4
 10
-270.3740157480315
 20
0.0550811865865057
 10
-272.3740157480314
 20
0.0550811865865057
 10
-272.3740157480314
 20
-15.44491881341352
 10
-270.3740157480315
 20
-15.44491881341352
 97
        0
 75
     0
 76
     1
 98
        0
  0
HATCH
  5
260
330
1F
100
AcDbEntity
  8
FREI LASSEN
  6
AUSGEZOGEN
 62
    18
420
        0
370
    18
100
AcDbHatch
 10
0.0
 20
0.0
 30
0.0
210
0.0
220
0.0
230
1.0
  2
SOLID
 70
     1
 71
     0
 91
        3
 92
        2
 72
     0
 73
     1
 93
        5
 10
-150.7240157480314
 20
-0.6202760925089486
 10
-150.9003981153845
 20
0.0550811865865057
 10
-151.7240157480314
 20
0.0550811865865057
 10
-151.7240157480314
 20
-12.94491881341349
 10
-150.7240157480314
 20
-12.94491881341349
 97
        0
 92
        2
 72
     1
 73
     1
 93
        6
 10
-151.7240157480314
 20
3.055081186586449
 42
0.0
 10
-151.7240157480314
 20
0.0550811865865057
 42
0.0
 10
-150.9003981153845
 20
0.0550811865865057
 42
0.0
 10
-151.1120311244089
 20
0.86541101312419
 42
-0.311558011243981
 10
-150.7240157480314
 20
1.933054256242057
 42
0.0
 10
-150.7240157480314
 20
3.055081186586449
 42
0.0
 97
        0
 92
        2
 72
     1
 73
     1
 93
       10
 10
-150.7240157480314
 20
4.136469398555879
 42
-0.3648918201500242
 10
-151.5473126259432
 20
5.12707384253555
 42
-0.361305758279676
 10
-150.7240157480314
 20
6.105004997912583
 42
0.0
 10
-150.7240157480314
 20
8.141277479837978
 42
-0.3575960332523733
 10
-151.5219660487379
 20
9.126993535607438
 42
-0.3540265704470577
 10
-150.7240157480314
 20
10.10003630277426
 42
0.0
 10
-150.7240157480314
 20
87.05508118658645
 42
0.0
 10
-151.7240157480314
 20
87.05508118658645
 42
0.0
 10
-151.7240157480314
 20
3.055081186586449
 42
0.0
 10
-150.7240157480314
 20
3.055081186586449
 42
0.0
 97
        0
 75
     0
 76
     1
 98
        0
  0
ENDSEC
  0
SECTION
  2
OBJECTS
  0
DICTIONARY
  5
C
330
0
100
AcDbDictionary
281
     1
  3
ACAD_DETAILVIEWSTYLE
350
299
  3
ACAD_GROUP
350
D
  3
ACAD_LAYOUT
350
1A
  3
ACAD_MATERIAL
350
43
  3
ACAD_MLEADERSTYLE
350
6B
  3
ACAD_MLINESTYLE
350
17
  3
ACAD_PLOTSETTINGS
350
19
  3
ACAD_PLOTSTYLENAME
350
E
  3
ACAD_SCALELIST
350
47
  3
ACAD_SECTIONVIEWSTYLE
350
29A
  3
ACAD_TABLESTYLE
350
69
  3
ACAD_VISUALSTYLE
350
2A
  3
ACAD_WIPEOUT_VARS
350
296
  3
ACDB_RECOMPOSE_DATA
350
295
  3
AcDbVariableDictionary
350
261
  0
SUN
  5
6D
330
29
100
AcDbSun
 90
        1
290
     0
 63
     7
421
 16777215
 40
1.0
291
     1
 91
  2455826
 92
 54000000
292
     0
 70
     2
 71
   256
280
     1
  0
DICTIONARY
  5
299
102
{ACAD_REACTORS
330
C
102
}
330
C
100
AcDbDictionary
281
     1
  0
DICTIONARY
  5
D
102
{ACAD_REACTORS
330
C
102
}
330
C
100
AcDbDictionary
281
     1
  0
DICTIONARY
  5
1A
102
{ACAD_REACTORS
330
C
102
}
330
C
100
AcDbDictionary
281
     1
  3
Layout1
350
1E
  3
Layout2
350
26
  3
Model
350
22
  0
DICTIONARY
  5
43
102
{ACAD_REACTORS
330
C
102
}
330
C
100
AcDbDictionary
281
     1
  3
ByBlock
350
45
  3
ByLayer
350
44
  3
Global
350
46
  0
DICTIONARY
  5
6B
102
{ACAD_REACTORS
330
C
102
}
330
C
100
AcDbDictionary
281
     1
  3
Standard
350
6C
  0
DICTIONARY
  5
17
102
{ACAD_REACTORS
330
C
102
}
330
C
100
AcDbDictionary
281
     1
  3
Standard
350
18
  0
DICTIONARY
  5
19
102
{ACAD_REACTORS
330
C
102
}
330
C
100
AcDbDictionary
281
     1
  0
ACDBDICTIONARYWDFLT
  5
E
102
{ACAD_REACTORS
330
C
102
}
330
C
100
AcDbDictionary
281
     1
  3
Normal
350
F
100
AcDbDictionaryWithDefault
340
F
  0
DICTIONARY
  5
47
102
{ACAD_REACTORS
330
C
102
}
330
C
100
AcDbDictionary
281
     1
  3
A0
350
48
  3
A1
350
49
  3
A2
350
4A
  3
A3
350
4B
  3
A4
350
4C
  3
A5
350
4D
  3
A6
350
4E
  3
A7
350
4F
  3
A8
350
50
  3
A9
350
51
  3
B0
350
52
  3
B1
350
53
  3
B2
350
54
  3
B3
350
55
  3
B4
350
56
  3
B5
350
57
  3
B6
350
58
  3
B7
350
59
  3
B8
350
5A
  3
B9
350
5B
  3
C0
350
5C
  3
C1
350
5D
  3
C2
350
5E
  3
C3
350
5F
  3
C4
350
60
  3
C5
350
61
  3
C6
350
62
  3
C7
350
63
  3
C8
350
64
  3
C9
350
65
  3
D0
350
66
  3
D1
350
67
  3
D2
350
68
  0
DICTIONARY
  5
29A
102
{ACAD_REACTORS
330
C
102
}
330
C
100
AcDbDictionary
281
     1
  0
DICTIONARY
  5
69
102
{ACAD_REACTORS
330
C
102
}
330
C
100
AcDbDictionary
281
     1
  3
Standard
350
6A
  0
DICTIONARY
  5
2A
102
{ACAD_REACTORS
330
C
102
}
330
C
100
AcDbDictionary
281
     1
  3
2dWireframe
350
2F
  3
Basic
350
32
  3
Brighten
350
36
  3
ColorChange
350
3A
  3
Conceptual
350
34
  3
Dim
350
35
  3
EdgeColorOff
350
3D
  3
Facepattern
350
39
  3
Flat
350
2B
  3
FlatWithEdges
350
2C
  3
Gouraud
350
2D
  3
GouraudWithEdges
350
2E
  3
Hidden
350
31
  3
JitterOff
350
3B
  3
Linepattern
350
38
  3
OverhangOff
350
3C
  3
Realistic
350
33
  3
Shaded
350
42
  3
Shaded with edges
350
41
  3
Shades of Gray
350
3E
  3
Sketchy
350
3F
  3
Thicken
350
37
  3
Wireframe
350
30
  3
X-Ray
350
40
  0
WIPEOUTVARIABLES
  5
296
102
{ACAD_REACTORS
330
C
102
}
330
C
100
AcDbWipeoutVariables
 70
     0
  0
XRECORD
  5
295
102
{ACAD_REACTORS
330
C
102
}
330
C
100
AcDbXrecord
280
     1
 90
        1
330
6A
  0
DICTIONARY
  5
261
102
{ACAD_REACTORS
330
C
102
}
330
C
100
AcDbDictionary
281
     1
  3
CANNOSCALE
350
262
  3
CENTEREXE
350
29C
  3
CENTERLTYPEFILE
350
29D
  3
CMLEADERSTYLE
350
298
  3
CTABLESTYLE
350
297
  3
WIPEOUTFRAME
350
29B
  0
LAYOUT
  5
1E
102
{ACAD_REACTORS
330
1A
102
}
330
1A
100
AcDbPlotSettings
  1

  2
none_device
  4

  6

 40
0.0
 41
0.0
 42
0.0
 43
0.0
 44
0.0
 45
0.0
 46
0.0
 47
0.0
 48
0.0
 49
0.0
140
0.0
141
0.0
142
1.0
143
1.0
 70
   688
 72
     1
 73
     0
 74
     5
  7

 75
    16
 76
     0
 77
     2
 78
   300
147
1.0
148
0.0
149
0.0
100
AcDbLayout
  1
Layout1
 70
     1
 71
     1
 10
0.0
 20
0.0
 11
420.0
 21
297.0
 12
0.0
 22
0.0
 32
0.0
 14
1.000000000000E+20
 24
1.000000000000E+20
 34
1.000000000000E+20
 15
-1.000000000000E+20
 25
-1.000000000000E+20
 35
-1.000000000000E+20
146
0.0
 13
0.0
 23
0.0
 33
0.0
 16
1.0
 26
0.0
 36
0.0
 17
0.0
 27
1.0
 37
0.0
 76
     0
330
1B
  0
LAYOUT
  5
26
102
{ACAD_REACTORS
330
1A
102
}
330
1A
100
AcDbPlotSettings
  1

  2
none_device
  4

  6

 40
0.0
 41
0.0
 42
0.0
 43
0.0
 44
0.0
 45
0.0
 46
0.0
 47
0.0
 48
0.0
 49
0.0
140
0.0
141
0.0
142
1.0
143
1.0
 70
   688
 72
     1
 73
     0
 74
     5
  7

 75
    16
 76
     0
 77
     2
 78
   300
147
1.0
148
0.0
149
0.0
100
AcDbLayout
  1
Layout2
 70
     1
 71
     2
 10
0.0
 20
0.0
 11
0.0
 21
0.0
 12
0.0
 22
0.0
 32
0.0
 14
0.0
 24
0.0
 34
0.0
 15
0.0
 25
0.0
 35
0.0
146
0.0
 13
0.0
 23
0.0
 33
0.0
 16
1.0
 26
0.0
 36
0.0
 17
0.0
 27
1.0
 37
0.0
 76
     0
330
23
  0
LAYOUT
  5
22
102
{ACAD_REACTORS
330
1A
102
}
330
1A
100
AcDbPlotSettings
  1

  2
none_device
  4
Letter_(8.50_x_11.00_Inches)
  6

 40
6.35
 41
6.35
 42
6.35000508
 43
6.35000508
 44
215.9
 45
279.4
 46
0.0
 47
0.0
 48
0.0
 49
0.0
140
0.0
141
0.0
142
1.0
143
1.0
 70
  1712
 72
     1
 73
     0
 74
     0
  7

 75
     0
 76
     0
 77
     2
 78
   300
147
1.0
148
0.0
149
0.0
100
AcDbLayout
  1
Model
 70
     1
 71
     0
 10
0.0
 20
0.0
 11
420.0
 21
297.0
 12
0.0
 22
0.0
 32
0.0
 14
-586.016099765425
 24
-211.944918813414
 34
0.0
 15
170.265104643718
 25
118.055081186586
 35
0.0
146
0.0
 13
0.0
 23
0.0
 33
0.0
 16
1.0
 26
0.0
 36
0.0
 17
0.0
 27
1.0
 37
0.0
 76
     0
330
1F
331
29
  0
MATERIAL
  5
45
102
{ACAD_REACTORS
330
43
102
}
330
43
100
AcDbMaterial
  1
ByBlock
 72
     1
 94
      127
  0
MATERIAL
  5
44
102
{ACAD_REACTORS
330
43
102
}
330
43
100
AcDbMaterial
  1
ByLayer
 72
     1
 94
      127
  0
MATERIAL
  5
46
102
{ACAD_REACTORS
330
43
102
}
330
43
100
AcDbMaterial
  1
Global
 72
     1
 94
      127
  0
MLEADERSTYLE
  5
6C
102
{ACAD_REACTORS
330
6B
102
}
330
6B
100
AcDbMLeaderStyle
179
     2
170
     2
171
     1
172
     0
 90
        2
 40
0.0
 41
0.0
173
     1
 91
-1056964608
340
14
 92
       -2
290
     1
 42
2.0
291
     1
 43
8.0
  3
Standard
341
0
 44
4.0
300

342
11
174
     1
178
     6
175
     1
176
     0
 93
-1056964608
 45
4.0
292
     0
297
     0
 46
4.0
343
0
 94
-1056964608
 47
1.0
 49
1.0
140
1.0
293
     1
141
0.0
294
     1
177
     0
142
1.0
295
     0
296
     0
143
3.75
271
     0
272
     9
273
     9
  0
MLINESTYLE
  5
18
102
{ACAD_REACTORS
330
17
102
}
330
17
100
AcDbMlineStyle
  2
Standard
 70
     0
  3

 62
   256
 51
90.0
 52
90.0
 71
     2
 49
0.5
 62
   256
  6
BYLAYER
 49
-0.5
 62
   256
  6
BYLAYER
  0
ACDBPLACEHOLDER
  5
F
102
{ACAD_REACTORS
330
E
102
}
330
E
  0
SCALE
  5
48
102
{ACAD_REACTORS
330
47
102
}
330
47
100
AcDbScale
 70
     0
300
1:1
140
1.0
141
1.0
290
     1
  0
SCALE
  5
49
102
{ACAD_REACTORS
330
47
102
}
330
47
100
AcDbScale
 70
     0
300
1:2
140
1.0
141
2.0
290
     0
  0
SCALE
  5
4A
102
{ACAD_REACTORS
330
47
102
}
330
47
100
AcDbScale
 70
     0
300
1:4
140
1.0
141
4.0
290
     0
  0
SCALE
  5
4B
102
{ACAD_REACTORS
330
47
102
}
330
47
100
AcDbScale
 70
     0
300
1:5
140
1.0
141
5.0
290
     0
  0
SCALE
  5
4C
102
{ACAD_REACTORS
330
47
102
}
330
47
100
AcDbScale
 70
     0
300
1:8
140
1.0
141
8.0
290
     0
  0
SCALE
  5
4D
102
{ACAD_REACTORS
330
47
102
}
330
47
100
AcDbScale
 70
     0
300
1:10
140
1.0
141
10.0
290
     0
  0
SCALE
  5
4E
102
{ACAD_REACTORS
330
47
102
}
330
47
100
AcDbScale
 70
     0
300
1:16
140
1.0
141
16.0
290
     0
  0
SCALE
  5
4F
102
{ACAD_REACTORS
330
47
102
}
330
47
100
AcDbScale
 70
     0
300
1:20
140
1.0
141
20.0
290
     0
  0
SCALE
  5
50
102
{ACAD_REACTORS
330
47
102
}
330
47
100
AcDbScale
 70
     0
300
1:30
140
1.0
141
30.0
290
     0
  0
SCALE
  5
51
102
{ACAD_REACTORS
330
47
102
}
330
47
100
AcDbScale
 70
     0
300
1:40
140
1.0
141
40.0
290
     0
  0
SCALE
  5
52
102
{ACAD_REACTORS
330
47
102
}
330
47
100
AcDbScale
 70
     0
300
1:50
140
1.0
141
50.0
290
     0
  0
SCALE
  5
53
102
{ACAD_REACTORS
330
47
102
}
330
47
100
AcDbScale
 70
     0
300
1:100
140
1.0
141
100.0
290
     0
  0
SCALE
  5
54
102
{ACAD_REACTORS
330
47
102
}
330
47
100
AcDbScale
 70
     0
300
2:1
140
2.0
141
1.0
290
     0
  0
SCALE
  5
55
102
{ACAD_REACTORS
330
47
102
}
330
47
100
AcDbScale
 70
     0
300
4:1
140
4.0
141
1.0
290
     0
  0
SCALE
  5
56
102
{ACAD_REACTORS
330
47
102
}
330
47
100
AcDbScale
 70
     0
300
8:1
140
8.0
141
1.0
290
     0
  0
SCALE
  5
57
102
{ACAD_REACTORS
330
47
102
}
330
47
100
AcDbScale
 70
     0
300
10:1
140
10.0
141
1.0
290
     0
  0
SCALE
  5
58
102
{ACAD_REACTORS
330
47
102
}
330
47
100
AcDbScale
 70
     0
300
100:1
140
100.0
141
1.0
290
     0
  0
SCALE
  5
59
102
{ACAD_REACTORS
330
47
102
}
330
47
100
AcDbScale
 70
     0
300
1/128" = 1'-0"
140
0.0078125
141
12.0
290
     0
  0
SCALE
  5
5A
102
{ACAD_REACTORS
330
47
102
}
330
47
100
AcDbScale
 70
     0
300
1/64" = 1'-0"
140
0.015625
141
12.0
290
     0
  0
SCALE
  5
5B
102
{ACAD_REACTORS
330
47
102
}
330
47
100
AcDbScale
 70
     0
300
1/32" = 1'-0"
140
0.03125
141
12.0
290
     0
  0
SCALE
  5
5C
102
{ACAD_REACTORS
330
47
102
}
330
47
100
AcDbScale
 70
     0
300
1/16" = 1'-0"
140
0.0625
141
12.0
290
     0
  0
SCALE
  5
5D
102
{ACAD_REACTORS
330
47
102
}
330
47
100
AcDbScale
 70
     0
300
3/32" = 1'-0"
140
0.09375
141
12.0
290
     0
  0
SCALE
  5
5E
102
{ACAD_REACTORS
330
47
102
}
330
47
100
AcDbScale
 70
     0
300
1/8" = 1'-0"
140
0.125
141
12.0
290
     0
  0
SCALE
  5
5F
102
{ACAD_REACTORS
330
47
102
}
330
47
100
AcDbScale
 70
     0
300
3/16" = 1'-0"
140
0.1875
141
12.0
290
     0
  0
SCALE
  5
60
102
{ACAD_REACTORS
330
47
102
}
330
47
100
AcDbScale
 70
     0
300
1/4" = 1'-0"
140
0.25
141
12.0
290
     0
  0
SCALE
  5
61
102
{ACAD_REACTORS
330
47
102
}
330
47
100
AcDbScale
 70
     0
300
3/8" = 1'-0"
140
0.375
141
12.0
290
     0
  0
SCALE
  5
62
102
{ACAD_REACTORS
330
47
102
}
330
47
100
AcDbScale
 70
     0
300
1/2" = 1'-0"
140
0.5
141
12.0
290
     0
  0
SCALE
  5
63
102
{ACAD_REACTORS
330
47
102
}
330
47
100
AcDbScale
 70
     0
300
3/4" = 1'-0"
140
0.75
141
12.0
290
     0
  0
SCALE
  5
64
102
{ACAD_REACTORS
330
47
102
}
330
47
100
AcDbScale
 70
     0
300
1" = 1'-0"
140
1.0
141
12.0
290
     0
  0
SCALE
  5
65
102
{ACAD_REACTORS
330
47
102
}
330
47
100
AcDbScale
 70
     0
300
1-1/2" = 1'-0"
140
1.5
141
12.0
290
     0
  0
SCALE
  5
66
102
{ACAD_REACTORS
330
47
102
}
330
47
100
AcDbScale
 70
     0
300
3" = 1'-0"
140
3.0
141
12.0
290
     0
  0
SCALE
  5
67
102
{ACAD_REACTORS
330
47
102
}
330
47
100
AcDbScale
 70
     0
300
6" = 1'-0"
140
6.0
141
12.0
290
     0
  0
SCALE
  5
68
102
{ACAD_REACTORS
330
47
102
}
330
47
100
AcDbScale
 70
     0
300
1'-0" = 1'-0"
140
12.0
141
12.0
290
     0
  0
TABLESTYLE
  5
6A
102
{ACAD_REACTORS
330
69
102
}
102
{ACAD_XDICTIONARY
360
293
102
}
330
69
100
AcDbTableStyle
  3
Standard
 70
     0
 71
     0
 40
0.06
 41
0.06
280
     0
281
     0
  7
Standard
140
4.5
170
     2
 62
     0
 63
   257
283
     0
 90
        4
 91
        0
  1

274
    -2
284
     1
 64
     0
275
    -2
285
     1
 65
     0
276
    -2
286
     1
 66
     0
277
    -2
287
     1
 67
     0
278
    -2
288
     1
 68
     0
279
    -2
289
     1
 69
     0
  7
Standard
140
6.0
170
     5
 62
     0
 63
   257
283
     0
 90
        4
 91
        0
  1

274
    -2
284
     1
 64
     0
275
    -2
285
     1
 65
     0
276
    -2
286
     1
 66
     0
277
    -2
287
     1
 67
     0
278
    -2
288
     1
 68
     0
279
    -2
289
     1
 69
     0
  7
Standard
140
4.5
170
     5
 62
     0
 63
   257
283
     0
 90
        4
 91
        0
  1

274
    -2
284
     1
 64
     0
275
    -2
285
     1
 65
     0
276
    -2
286
     1
 66
     0
277
    -2
287
     1
 67
     0
278
    -2
288
     1
 68
     0
279
    -2
289
     1
 69
     0
  0
VISUALSTYLE
  5
2F
102
{ACAD_REACTORS
330
2A
102
}
102
{ACAD_XDICTIONARY
360
26B
102
}
330
2A
100
AcDbVisualStyle
  2
2dWireframe
 70
     4
177
     2
291
     0
 71
     0
176
     1
 72
     2
176
     1
 73
     0
176
     1
 90
        0
176
     1
 40
0.6
176
     1
 41
30.0
176
     1
 62
     5
 63
     7
421
 16777215
176
     1
 74
     1
176
     1
 91
        4
176
     1
 64
     7
176
     1
 65
   257
176
     1
 75
     1
176
     1
175
     1
176
     1
 42
1.0
176
     1
 92
        0
176
     1
 66
   257
176
     1
 43
1.0
176
     1
 76
     1
176
     1
 77
     6
176
     1
 78
     2
176
     1
 67
     7
176
     1
 79
     5
176
     1
170
     0
176
     1
171
     0
176
     1
290
     0
176
     1
 93
        1
176
     1
 44
0.0
176
     1
173
     0
176
     1
  0
VISUALSTYLE
  5
32
102
{ACAD_REACTORS
330
2A
102
}
102
{ACAD_XDICTIONARY
360
271
102
}
330
2A
100
AcDbVisualStyle
  2
Basic
 70
     7
177
     2
291
     1
 71
     1
176
     1
 72
     0
176
     1
 73
     1
176
     1
 90
        0
176
     1
 40
0.6
176
     1
 41
30.0
176
     1
 62
     5
 63
     7
421
 16777215
176
     1
 74
     0
176
     1
 91
        4
176
     1
 64
     7
176
     1
 65
   257
176
     1
 75
     1
176
     1
175
     1
176
     1
 42
1.0
176
     1
 92
        8
176
     1
 66
     7
176
     1
 43
1.0
176
     1
 76
     1
176
     1
 77
     6
176
     1
 78
     2
176
     1
 67
     7
176
     1
 79
     5
176
     1
170
     0
176
     1
171
     0
176
     1
290
     0
176
     1
 93
        1
176
     1
 44
0.0
176
     1
173
     0
176
     1
  0
VISUALSTYLE
  5
36
102
{ACAD_REACTORS
330
2A
102
}
102
{ACAD_XDICTIONARY
360
279
102
}
330
2A
100
AcDbVisualStyle
  2
Brighten
 70
    12
177
     2
291
     1
 71
     2
176
     1
 72
     2
176
     1
 73
     0
176
     1
 90
        0
176
     1
 40
0.6
176
     1
 41
30.0
176
     1
 62
     5
 63
     7
421
 16777215
176
     1
 74
     1
176
     1
 91
        4
176
     1
 64
     7
176
     1
 65
   257
176
     1
 75
     1
176
     1
175
     1
176
     1
 42
1.0
176
     1
 92
        8
176
     1
 66
     7
176
     1
 43
1.0
176
     1
 76
     1
176
     1
 77
     6
176
     1
 78
     2
176
     1
 67
     7
176
     1
 79
     5
176
     1
170
     0
176
     1
171
     0
176
     1
290
     0
176
     1
 93
        1
176
     1
 44
50.0
176
     1
173
     0
176
     1
  0
VISUALSTYLE
  5
3A
102
{ACAD_REACTORS
330
2A
102
}
102
{ACAD_XDICTIONARY
360
281
102
}
330
2A
100
AcDbVisualStyle
  2
ColorChange
 70
    16
177
     2
291
     1
 71
     2
176
     1
 72
     2
176
     1
 73
     3
176
     1
 90
        0
176
     1
 40
0.6
176
     1
 41
30.0
176
     1
 62
     5
 63
     8
421
  8421504
176
     1
 74
     1
176
     1
 91
        4
176
     1
 64
     7
176
     1
 65
   257
176
     1
 75
     1
176
     1
175
     1
176
     1
 42
1.0
176
     1
 92
        8
176
     1
 66
     8
424
  8421504
176
     1
 43
1.0
176
     1
 76
     1
176
     1
 77
     6
176
     1
 78
     2
176
     1
 67
     7
176
     1
 79
     5
176
     1
170
     0
176
     1
171
     0
176
     1
290
     0
176
     1
 93
        1
176
     1
 44
0.0
176
     1
173
     0
176
     1
  0
VISUALSTYLE
  5
34
102
{ACAD_REACTORS
330
2A
102
}
102
{ACAD_XDICTIONARY
360
275
102
}
330
2A
100
AcDbVisualStyle
  2
Conceptual
 70
     9
177
     2
291
     0
 71
     3
176
     1
 72
     2
176
     1
 73
     0
176
     1
 90
        0
176
     1
 40
0.6
176
     1
 41
30.0
176
     1
 62
     5
 63
     7
421
 16777215
176
     1
 74
     2
176
     1
 91
        2
176
     1
 64
     7
176
     1
 65
   257
176
     1
 75
     1
176
     1
175
     1
176
     1
 42
179.0
176
     1
 92
        8
176
     1
 66
     7
176
     1
 43
1.0
176
     1
 76
     1
176
     1
 77
     6
176
     1
 78
     2
176
     1
 67
     7
176
     1
 79
     3
176
     1
170
     0
176
     1
171
     0
176
     1
290
     0
176
     1
 93
        1
176
     1
 44
0.0
176
     1
173
     0
176
     1
  0
VISUALSTYLE
  5
35
102
{ACAD_REACTORS
330
2A
102
}
102
{ACAD_XDICTIONARY
360
277
102
}
330
2A
100
AcDbVisualStyle
  2
Dim
 70
    11
177
     2
291
     1
 71
     2
176
     1
 72
     2
176
     1
 73
     0
176
     1
 90
        0
176
     1
 40
0.6
176
     1
 41
30.0
176
     1
 62
     5
 63
     7
421
 16777215
176
     1
 74
     1
176
     1
 91
        4
176
     1
 64
     7
176
     1
 65
   257
176
     1
 75
     1
176
     1
175
     1
176
     1
 42
1.0
176
     1
 92
        8
176
     1
 66
     7
176
     1
 43
1.0
176
     1
 76
     1
176
     1
 77
     6
176
     1
 78
     2
176
     1
 67
     7
176
     1
 79
     5
176
     1
170
     0
176
     1
171
     0
176
     1
290
     0
176
     1
 93
        1
176
     1
 44
-50.0
176
     1
173
     0
176
     1
  0
VISUALSTYLE
  5
3D
102
{ACAD_REACTORS
330
2A
102
}
102
{ACAD_XDICTIONARY
360
287
102
}
330
2A
100
AcDbVisualStyle
  2
EdgeColorOff
 70
    22
177
     2
291
     1
 71
     2
176
     0
 72
     2
176
     0
 73
     0
176
     0
 90
        0
176
     0
 40
0.6
176
     0
 41
30.0
176
     0
 62
     5
 63
     7
421
 16777215
176
     0
 74
     1
176
     0
 91
        4
176
     0
 64
     7
176
     0
 65
   257
176
     0
 75
     1
176
     0
175
     1
176
     0
 42
1.0
176
     0
 92
        8
176
     2
 66
     7
176
     0
 43
1.0
176
     0
 76
     1
176
     0
 77
     6
176
     0
 78
     2
176
     0
 67
     7
176
     0
 79
     5
176
     0
170
     0
176
     0
171
     0
176
     0
290
     0
176
     0
 93
        1
176
     0
 44
0.0
176
     0
173
     0
176
     0
  0
VISUALSTYLE
  5
39
102
{ACAD_REACTORS
330
2A
102
}
102
{ACAD_XDICTIONARY
360
27F
102
}
330
2A
100
AcDbVisualStyle
  2
Facepattern
 70
    15
177
     2
291
     1
 71
     2
176
     1
 72
     2
176
     1
 73
     0
176
     1
 90
        0
176
     1
 40
0.6
176
     1
 41
30.0
176
     1
 62
     5
 63
     7
421
 16777215
176
     1
 74
     1
176
     1
 91
        4
176
     1
 64
     7
176
     1
 65
   257
176
     1
 75
     1
176
     1
175
     1
176
     1
 42
1.0
176
     1
 92
        8
176
     1
 66
     7
176
     1
 43
1.0
176
     1
 76
     1
176
     1
 77
     6
176
     1
 78
     2
176
     1
 67
     7
176
     1
 79
     5
176
     1
170
     0
176
     1
171
     0
176
     1
290
     0
176
     1
 93
        1
176
     1
 44
0.0
176
     1
173
     0
176
     1
  0
VISUALSTYLE
  5
2B
102
{ACAD_REACTORS
330
2A
102
}
102
{ACAD_XDICTIONARY
360
263
102
}
330
2A
100
AcDbVisualStyle
  2
Flat
 70
     0
177
     2
291
     1
 71
     2
176
     1
 72
     1
176
     1
 73
     1
176
     1
 90
        2
176
     1
 40
0.6
176
     1
 41
30.0
176
     1
 62
     5
 63
     7
421
 16777215
176
     1
 74
     0
176
     1
 91
        0
176
     1
 64
     7
176
     1
 65
   257
176
     1
 75
     1
176
     1
175
     1
176
     1
 42
1.0
176
     1
 92
        8
176
     1
 66
     7
176
     1
 43
1.0
176
     1
 76
     1
176
     1
 77
     6
176
     1
 78
     2
176
     1
 67
     7
176
     1
 79
     5
176
     1
170
     0
176
     1
171
     0
176
     1
290
     0
176
     1
 93
       13
176
     1
 44
0.0
176
     1
173
     0
176
     1
  0
VISUALSTYLE
  5
2C
102
{ACAD_REACTORS
330
2A
102
}
102
{ACAD_XDICTIONARY
360
265
102
}
330
2A
100
AcDbVisualStyle
  2
FlatWithEdges
 70
     1
177
     2
291
     1
 71
     2
176
     1
 72
     1
176
     1
 73
     1
176
     1
 90
        2
176
     1
 40
0.6
176
     1
 41
30.0
176
     1
 62
     5
 63
     7
421
 16777215
176
     1
 74
     1
176
     1
 91
        0
176
     1
 64
     7
176
     1
 65
   257
176
     1
 75
     1
176
     1
175
     1
176
     1
 42
1.0
176
     1
 92
        0
176
     1
 66
   257
176
     1
 43
1.0
176
     1
 76
     1
176
     1
 77
     6
176
     1
 78
     2
176
     1
 67
     7
176
     1
 79
     5
176
     1
170
     0
176
     1
171
     0
176
     1
290
     0
176
     1
 93
       13
176
     1
 44
0.0
176
     1
173
     0
176
     1
  0
VISUALSTYLE
  5
2D
102
{ACAD_REACTORS
330
2A
102
}
102
{ACAD_XDICTIONARY
360
267
102
}
330
2A
100
AcDbVisualStyle
  2
Gouraud
 70
     2
177
     2
291
     1
 71
     2
176
     1
 72
     2
176
     1
 73
     1
176
     1
 90
        2
176
     1
 40
0.6
176
     1
 41
30.0
176
     1
 62
     5
 63
     7
421
 16777215
176
     1
 74
     0
176
     1
 91
        0
176
     1
 64
     7
176
     1
 65
   257
176
     1
 75
     1
176
     1
175
     1
176
     1
 42
1.0
176
     1
 92
        0
176
     1
 66
     7
176
     1
 43
1.0
176
     1
 76
     1
176
     1
 77
     6
176
     1
 78
     2
176
     1
 67
     7
176
     1
 79
     5
176
     1
170
     0
176
     1
171
     0
176
     1
290
     0
176
     1
 93
       13
176
     1
 44
0.0
176
     1
173
     0
176
     1
  0
VISUALSTYLE
  5
2E
102
{ACAD_REACTORS
330
2A
102
}
102
{ACAD_XDICTIONARY
360
269
102
}
330
2A
100
AcDbVisualStyle
  2
GouraudWithEdges
 70
     3
177
     2
291
     1
 71
     2
176
     1
 72
     2
176
     1
 73
     1
176
     1
 90
        2
176
     1
 40
0.6
176
     1
 41
30.0
176
     1
 62
     5
 63
     7
421
 16777215
176
     1
 74
     1
176
     1
 91
        0
176
     1
 64
     7
176
     1
 65
   257
176
     1
 75
     1
176
     1
175
     1
176
     1
 42
1.0
176
     1
 92
        0
176
     1
 66
   257
176
     1
 43
1.0
176
     1
 76
     1
176
     1
 77
     6
176
     1
 78
     2
176
     1
 67
     7
176
     1
 79
     5
176
     1
170
     0
176
     1
171
     0
176
     1
290
     0
176
     1
 93
       13
176
     1
 44
0.0
176
     1
173
     0
176
     1
  0
VISUALSTYLE
  5
31
102
{ACAD_REACTORS
330
2A
102
}
102
{ACAD_XDICTIONARY
360
26F
102
}
330
2A
100
AcDbVisualStyle
  2
Hidden
 70
     6
177
     2
291
     0
 71
     1
176
     1
 72
     2
176
     1
 73
     2
176
     1
 90
        0
176
     1
 40
0.6
176
     1
 41
30.0
176
     1
 62
     5
 63
     7
421
 16777215
176
     1
 74
     2
176
     1
 91
        2
176
     1
 64
     7
176
     1
 65
   257
176
     1
 75
     2
176
     1
175
     1
176
     1
 42
40.0
176
     1
 92
        0
176
     1
 66
   257
176
     1
 43
1.0
176
     1
 76
     1
176
     1
 77
     6
176
     1
 78
     2
176
     1
 67
     7
176
     1
 79
     3
176
     1
170
     0
176
     1
171
     0
176
     1
290
     0
176
     1
 93
        1
176
     1
 44
0.0
176
     1
173
     0
176
     1
  0
VISUALSTYLE
  5
3B
102
{ACAD_REACTORS
330
2A
102
}
102
{ACAD_XDICTIONARY
360
283
102
}
330
2A
100
AcDbVisualStyle
  2
JitterOff
 70
    20
177
     2
291
     1
 71
     2
176
     0
 72
     2
176
     0
 73
     0
176
     0
 90
        0
176
     0
 40
0.6
176
     0
 41
30.0
176
     0
 62
     5
 63
     7
421
 16777215
176
     0
 74
     1
176
     0
 91
        4
176
     0
 64
     7
176
     0
 65
   257
176
     0
 75
     1
176
     0
175
     1
176
     0
 42
1.0
176
     0
 92
       10
176
     2
 66
     7
176
     0
 43
1.0
176
     0
 76
     1
176
     0
 77
     6
176
     0
 78
     2
176
     0
 67
     7
176
     0
 79
     5
176
     0
170
     0
176
     0
171
     0
176
     0
290
     0
176
     0
 93
        1
176
     0
 44
0.0
176
     0
173
     0
176
     0
  0
VISUALSTYLE
  5
38
102
{ACAD_REACTORS
330
2A
102
}
102
{ACAD_XDICTIONARY
360
27D
102
}
330
2A
100
AcDbVisualStyle
  2
Linepattern
 70
    14
177
     2
291
     1
 71
     2
176
     1
 72
     2
176
     1
 73
     0
176
     1
 90
        0
176
     1
 40
0.6
176
     1
 41
30.0
176
     1
 62
     5
 63
     7
421
 16777215
176
     1
 74
     1
176
     1
 91
        4
176
     1
 64
     7
176
     1
 65
   257
176
     1
 75
     7
176
     1
175
     7
176
     1
 42
1.0
176
     1
 92
        8
176
     1
 66
     7
176
     1
 43
1.0
176
     1
 76
     1
176
     1
 77
     6
176
     1
 78
     2
176
     1
 67
     7
176
     1
 79
     5
176
     1
170
     0
176
     1
171
     0
176
     1
290
     0
176
     1
 93
        1
176
     1
 44
0.0
176
     1
173
     0
176
     1
  0
VISUALSTYLE
  5
3C
102
{ACAD_REACTORS
330
2A
102
}
102
{ACAD_XDICTIONARY
360
285
102
}
330
2A
100
AcDbVisualStyle
  2
OverhangOff
 70
    21
177
     2
291
     1
 71
     2
176
     0
 72
     2
176
     0
 73
     0
176
     0
 90
        0
176
     0
 40
0.6
176
     0
 41
30.0
176
     0
 62
     5
 63
     7
421
 16777215
176
     0
 74
     1
176
     0
 91
        4
176
     0
 64
     7
176
     0
 65
   257
176
     0
 75
     1
176
     0
175
     1
176
     0
 42
1.0
176
     0
 92
        9
176
     2
 66
     7
176
     0
 43
1.0
176
     0
 76
     1
176
     0
 77
     6
176
     0
 78
     2
176
     0
 67
     7
176
     0
 79
     5
176
     0
170
     0
176
     0
171
     0
176
     0
290
     0
176
     0
 93
        1
176
     0
 44
0.0
176
     0
173
     0
176
     0
  0
VISUALSTYLE
  5
33
102
{ACAD_REACTORS
330
2A
102
}
102
{ACAD_XDICTIONARY
360
273
102
}
330
2A
100
AcDbVisualStyle
  2
Realistic
 70
     8
177
     2
291
     0
 71
     2
176
     1
 72
     3
176
     1
 73
     0
176
     1
 90
        2
176
     1
 40
0.6
176
     1
 41
30.0
176
     1
 62
     5
 63
     7
421
 16777215
176
     1
 74
     0
176
     1
 91
        0
176
     1
 64
     7
176
     1
 65
   257
176
     1
 75
     1
176
     1
175
     1
176
     1
 42
1.0
176
     1
 92
        8
176
     1
 66
   257
176
     1
 43
1.0
176
     1
 76
     1
176
     1
 77
     6
176
     1
 78
     2
176
     1
 67
     7
176
     1
 79
     3
176
     1
170
     0
176
     1
171
     0
176
     1
290
     0
176
     1
 93
       13
176
     1
 44
0.0
176
     1
173
     0
176
     1
  0
VISUALSTYLE
  5
42
102
{ACAD_REACTORS
330
2A
102
}
102
{ACAD_XDICTIONARY
360
291
102
}
330
2A
100
AcDbVisualStyle
  2
Shaded
 70
    27
177
     2
291
     0
 71
     2
176
     1
 72
     2
176
     1
 73
     1
176
     1
 90
        2
176
     1
 40
0.6
176
     1
 41
30.0
176
     1
 62
     5
 63
     7
421
 16777215
176
     1
 74
     0
176
     1
 91
        4
176
     1
 64
     7
176
     1
 65
   257
176
     1
 75
     1
176
     1
175
     1
176
     1
 42
1.0
176
     1
 92
        8
176
     1
 66
   257
176
     1
 43
1.0
176
     1
 76
     1
176
     1
 77
     6
176
     1
 78
     2
176
     1
 67
     8
425
  7895160
176
     1
 79
     3
176
     1
170
     0
176
     1
171
     0
176
     1
290
     0
176
     1
 93
        5
176
     1
 44
0.0
176
     1
173
     0
176
     1
  0
VISUALSTYLE
  5
41
102
{ACAD_REACTORS
330
2A
102
}
102
{ACAD_XDICTIONARY
360
28F
102
}
330
2A
100
AcDbVisualStyle
  2
Shaded with edges
 70
    26
177
     2
291
     0
 71
     2
176
     1
 72
     2
176
     1
 73
     1
176
     1
 90
        2
176
     1
 40
0.6
176
     1
 41
30.0
176
     1
 62
     5
 63
     7
421
 16777215
176
     1
 74
     1
176
     1
 91
       10
176
     1
 64
     7
176
     1
 65
   257
176
     1
 75
     2
176
     1
175
     1
176
     1
 42
1.0
176
     1
 92
        8
176
     1
 66
   257
176
     1
 43
1.0
176
     1
 76
     1
176
     1
 77
     6
176
     1
 78
     2
176
     1
 67
     7
176
     1
 79
     3
176
     1
170
     0
176
     1
171
     0
176
     1
290
     0
176
     1
 93
        5
176
     1
 44
0.0
176
     1
173
     0
176
     1
  0
VISUALSTYLE
  5
3E
102
{ACAD_REACTORS
330
2A
102
}
102
{ACAD_XDICTIONARY
360
289
102
}
330
2A
100
AcDbVisualStyle
  2
Shades of Gray
 70
    23
177
     2
291
     0
 71
     2
176
     1
 72
     2
176
     1
 73
     3
176
     1
 90
        0
176
     1
 40
0.6
176
     1
 41
30.0
176
     1
 62
     5
 63
     7
421
 16777215
176
     1
 74
     2
176
     1
 91
        2
176
     1
 64
     7
176
     1
 65
     7
176
     1
 75
     1
176
     1
175
     1
176
     1
 42
40.0
176
     1
 92
        8
176
     1
 66
     7
176
     1
 43
1.0
176
     1
 76
     1
176
     1
 77
     6
176
     1
 78
     2
176
     1
 67
     7
176
     1
 79
     3
176
     1
170
     0
176
     1
171
     0
176
     1
290
     0
176
     1
 93
        1
176
     1
 44
0.0
176
     1
173
     0
176
     1
  0
VISUALSTYLE
  5
3F
102
{ACAD_REACTORS
330
2A
102
}
102
{ACAD_XDICTIONARY
360
28B
102
}
330
2A
100
AcDbVisualStyle
  2
Sketchy
 70
    24
177
     2
291
     0
 71
     1
176
     1
 72
     2
176
     1
 73
     2
176
     1
 90
        0
176
     1
 40
0.6
176
     1
 41
30.0
176
     1
 62
     5
 63
     7
421
 16777215
176
     1
 74
     2
176
     1
 91
        2
176
     1
 64
     7
176
     1
 65
     7
176
     1
 75
     1
176
     1
175
     1
176
     1
 42
40.0
176
     1
 92
       11
176
     1
 66
     7
176
     1
 43
1.0
176
     1
 76
     1
176
     1
 77
     6
176
     1
 78
     2
176
     1
 67
     7
176
     1
 79
     6
176
     1
170
     0
176
     1
171
     0
176
     1
290
     0
176
     1
 93
        1
176
     1
 44
0.0
176
     1
173
     0
176
     1
  0
VISUALSTYLE
  5
37
102
{ACAD_REACTORS
330
2A
102
}
102
{ACAD_XDICTIONARY
360
27B
102
}
330
2A
100
AcDbVisualStyle
  2
Thicken
 70
    13
177
     2
291
     1
 71
     2
176
     1
 72
     2
176
     1
 73
     0
176
     1
 90
        0
176
     1
 40
0.6
176
     1
 41
30.0
176
     1
 62
     5
 63
     7
421
 16777215
176
     1
 74
     1
176
     1
 91
        4
176
     1
 64
     7
176
     1
 65
   257
176
     1
 75
     1
176
     1
175
     1
176
     1
 42
1.0
176
     1
 92
       12
176
     1
 66
     7
176
     1
 43
1.0
176
     1
 76
     1
176
     1
 77
     6
176
     1
 78
     2
176
     1
 67
     7
176
     1
 79
     5
176
     1
170
     0
176
     1
171
     0
176
     1
290
     0
176
     1
 93
        1
176
     1
 44
0.0
176
     1
173
     0
176
     1
  0
VISUALSTYLE
  5
30
102
{ACAD_REACTORS
330
2A
102
}
102
{ACAD_XDICTIONARY
360
26D
102
}
330
2A
100
AcDbVisualStyle
  2
Wireframe
 70
     5
177
     2
291
     0
 71
     0
176
     1
 72
     2
176
     1
 73
     0
176
     1
 90
        0
176
     1
 40
0.6
176
     1
 41
30.0
176
     1
 62
     5
 63
     7
421
 16777215
176
     1
 74
     1
176
     1
 91
        4
176
     1
 64
     7
176
     1
 65
   257
176
     1
 75
     1
176
     1
175
     1
176
     1
 42
1.0
176
     1
 92
        0
176
     1
 66
   257
176
     1
 43
1.0
176
     1
 76
     1
176
     1
 77
     6
176
     1
 78
     2
176
     1
 67
     7
176
     1
 79
     3
176
     1
170
     0
176
     1
171
     0
176
     1
290
     0
176
     1
 93
        1
176
     1
 44
0.0
176
     1
173
     0
176
     1
  0
VISUALSTYLE
  5
40
102
{ACAD_REACTORS
330
2A
102
}
102
{ACAD_XDICTIONARY
360
28D
102
}
330
2A
100
AcDbVisualStyle
  2
X-Ray
 70
    25
177
     2
291
     0
 71
     2
176
     1
 72
     2
176
     1
 73
     1
176
     1
 90
        1
176
     1
 40
0.5
176
     1
 41
30.0
176
     1
 62
     5
 63
     7
421
 16777215
176
     1
 74
     1
176
     1
 91
        0
176
     1
 64
     7
176
     1
 65
   257
176
     1
 75
     1
176
     1
175
     1
176
     1
 42
1.0
176
     1
 92
        8
176
     1
 66
     7
176
     1
 43
1.0
176
     1
 76
     1
176
     1
 77
     6
176
     1
 78
     2
176
     1
 67
     7
176
     1
 79
     3
176
     1
170
     0
176
     1
171
     0
176
     1
290
     0
176
     1
 93
       13
176
     1
 44
0.0
176
     1
173
     0
176
     1
  0
DICTIONARYVAR
  5
262
102
{ACAD_REACTORS
330
261
102
}
330
261
100
DictionaryVariables
280
     0
  1
1:1
  0
DICTIONARYVAR
  5
29C
102
{ACAD_REACTORS
330
261
102
}
330
261
100
DictionaryVariables
280
     0
  1
3.500000
  0
DICTIONARYVAR
  5
29D
102
{ACAD_REACTORS
330
261
102
}
330
261
100
DictionaryVariables
280
     0
  1
acadiso.lin
  0
DICTIONARYVAR
  5
298
102
{ACAD_REACTORS
330
261
102
}
330
261
100
DictionaryVariables
280
     0
  1
Standard
  0
DICTIONARYVAR
  5
297
102
{ACAD_REACTORS
330
261
102
}
330
261
100
DictionaryVariables
280
     0
  1
Standard
  0
DICTIONARYVAR
  5
29B
102
{ACAD_REACTORS
330
261
102
}
330
261
100
DictionaryVariables
280
     0
  1
0
  0
DICTIONARY
  5
293
330
6A
100
AcDbDictionary
280
     1
281
     1
  3
ACAD_ROUNDTRIP_2008_TABLESTYLE_CELLSTYLEMAP
360
294
  0
DICTIONARY
  5
26B
330
2F
100
AcDbDictionary
280
     1
281
     1
  3
ACAD_XREC_ROUNDTRIP
360
26C
  0
DICTIONARY
  5
271
330
32
100
AcDbDictionary
280
     1
281
     1
  3
ACAD_XREC_ROUNDTRIP
360
272
  0
DICTIONARY
  5
279
330
36
100
AcDbDictionary
280
     1
281
     1
  3
ACAD_XREC_ROUNDTRIP
360
27A
  0
DICTIONARY
  5
281
330
3A
100
AcDbDictionary
280
     1
281
     1
  3
ACAD_XREC_ROUNDTRIP
360
282
  0
DICTIONARY
  5
275
330
34
100
AcDbDictionary
280
     1
281
     1
  3
ACAD_XREC_ROUNDTRIP
360
276
  0
DICTIONARY
  5
277
330
35
100
AcDbDictionary
280
     1
281
     1
  3
ACAD_XREC_ROUNDTRIP
360
278
  0
DICTIONARY
  5
287
330
3D
100
AcDbDictionary
280
     1
281
     1
  3
ACAD_XREC_ROUNDTRIP
360
288
  0
DICTIONARY
  5
27F
330
39
100
AcDbDictionary
280
     1
281
     1
  3
ACAD_XREC_ROUNDTRIP
360
280
  0
DICTIONARY
  5
263
330
2B
100
AcDbDictionary
280
     1
281
     1
  3
ACAD_XREC_ROUNDTRIP
360
264
  0
DICTIONARY
  5
265
330
2C
100
AcDbDictionary
280
     1
281
     1
  3
ACAD_XREC_ROUNDTRIP
360
266
  0
DICTIONARY
  5
267
330
2D
100
AcDbDictionary
280
     1
281
     1
  3
ACAD_XREC_ROUNDTRIP
360
268
  0
DICTIONARY
  5
269
330
2E
100
AcDbDictionary
280
     1
281
     1
  3
ACAD_XREC_ROUNDTRIP
360
26A
  0
DICTIONARY
  5
26F
330
31
100
AcDbDictionary
280
     1
281
     1
  3
ACAD_XREC_ROUNDTRIP
360
270
  0
DICTIONARY
  5
283
330
3B
100
AcDbDictionary
280
     1
281
     1
  3
ACAD_XREC_ROUNDTRIP
360
284
  0
DICTIONARY
  5
27D
330
38
100
AcDbDictionary
280
     1
281
     1
  3
ACAD_XREC_ROUNDTRIP
360
27E
  0
DICTIONARY
  5
285
330
3C
100
AcDbDictionary
280
     1
281
     1
  3
ACAD_XREC_ROUNDTRIP
360
286
  0
DICTIONARY
  5
273
330
33
100
AcDbDictionary
280
     1
281
     1
  3
ACAD_XREC_ROUNDTRIP
360
274
  0
DICTIONARY
  5
291
330
42
100
AcDbDictionary
280
     1
281
     1
  3
ACAD_XREC_ROUNDTRIP
360
292
  0
DICTIONARY
  5
28F
330
41
100
AcDbDictionary
280
     1
281
     1
  3
ACAD_XREC_ROUNDTRIP
360
290
  0
DICTIONARY
  5
289
330
3E
100
AcDbDictionary
280
     1
281
     1
  3
ACAD_XREC_ROUNDTRIP
360
28A
  0
DICTIONARY
  5
28B
330
3F
100
AcDbDictionary
280
     1
281
     1
  3
ACAD_XREC_ROUNDTRIP
360
28C
  0
DICTIONARY
  5
27B
330
37
100
AcDbDictionary
280
     1
281
     1
  3
ACAD_XREC_ROUNDTRIP
360
27C
  0
DICTIONARY
  5
26D
330
30
100
AcDbDictionary
280
     1
281
     1
  3
ACAD_XREC_ROUNDTRIP
360
26E
  0
DICTIONARY
  5
28D
330
40
100
AcDbDictionary
280
     1
281
     1
  3
ACAD_XREC_ROUNDTRIP
360
28E
  0
CELLSTYLEMAP
  5
294
102
{ACAD_REACTORS
330
293
102
}
330
293
100
AcDbCellStyleMap
 90
        3
300
CELLSTYLE
  1
TABLEFORMAT_BEGIN
 90
        5
170
     1
 91
        0
 92
    32768
 62
   257
 93
        1
300
CONTENTFORMAT
  1
CONTENTFORMAT_BEGIN
 90
        0
 91
        0
 92
        4
 93
        0
300

 40
0.0
140
1.0
 94
        5
 62
     0
340
11
144
6.0
309
CONTENTFORMAT_END
171
     1
301
MARGIN
  1
CELLMARGIN_BEGIN
 40
1.5
 40
1.5
 40
1.5
 40
1.5
 40
1.5
 40
1.5
309
CELLMARGIN_END
 94
        6
 95
        1
302
GRIDFORMAT
  1
GRIDFORMAT_BEGIN
 90
        0
 91
        1
 62
     0
 92
       -2
340
14
 93
        0
 40
0.045
309
GRIDFORMAT_END
 95
        2
302
GRIDFORMAT
  1
GRIDFORMAT_BEGIN
 90
        0
 91
        1
 62
     0
 92
       -2
340
14
 93
        0
 40
0.045
309
GRIDFORMAT_END
 95
        4
302
GRIDFORMAT
  1
GRIDFORMAT_BEGIN
 90
        0
 91
        1
 62
     0
 92
       -2
340
14
 93
        0
 40
0.045
309
GRIDFORMAT_END
 95
        8
302
GRIDFORMAT
  1
GRIDFORMAT_BEGIN
 90
        0
 91
        1
 62
     0
 92
       -2
340
14
 93
        0
 40
0.045
309
GRIDFORMAT_END
 95
       16
302
GRIDFORMAT
  1
GRIDFORMAT_BEGIN
 90
        0
 91
        1
 62
     0
 92
       -2
340
14
 93
        0
 40
0.045
309
GRIDFORMAT_END
 95
       32
302
GRIDFORMAT
  1
GRIDFORMAT_BEGIN
 90
        0
 91
        1
 62
     0
 92
       -2
340
14
 93
        0
 40
0.045
309
GRIDFORMAT_END
309
TABLEFORMAT_END
  1
CELLSTYLE_BEGIN
 90
        1
 91
        1
300
_TITLE
309
CELLSTYLE_END
300
CELLSTYLE
  1
TABLEFORMAT_BEGIN
 90
        5
170
     1
 91
        0
 92
        0
 62
   257
 93
        1
300
CONTENTFORMAT
  1
CONTENTFORMAT_BEGIN
 90
        0
 91
        0
 92
        4
 93
        0
300

 40
0.0
140
1.0
 94
        5
 62
     0
340
11
144
4.5
309
CONTENTFORMAT_END
171
     1
301
MARGIN
  1
CELLMARGIN_BEGIN
 40
1.5
 40
1.5
 40
1.5
 40
1.5
 40
1.5
 40
1.5
309
CELLMARGIN_END
 94
        6
 95
        1
302
GRIDFORMAT
  1
GRIDFORMAT_BEGIN
 90
        0
 91
        1
 62
     0
 92
       -2
340
14
 93
        0
 40
0.045
309
GRIDFORMAT_END
 95
        2
302
GRIDFORMAT
  1
GRIDFORMAT_BEGIN
 90
        0
 91
        1
 62
     0
 92
       -2
340
14
 93
        0
 40
0.045
309
GRIDFORMAT_END
 95
        4
302
GRIDFORMAT
  1
GRIDFORMAT_BEGIN
 90
        0
 91
        1
 62
     0
 92
       -2
340
14
 93
        0
 40
0.045
309
GRIDFORMAT_END
 95
        8
302
GRIDFORMAT
  1
GRIDFORMAT_BEGIN
 90
        0
 91
        1
 62
     0
 92
       -2
340
14
 93
        0
 40
0.045
309
GRIDFORMAT_END
 95
       16
302
GRIDFORMAT
  1
GRIDFORMAT_BEGIN
 90
        0
 91
        1
 62
     0
 92
       -2
340
14
 93
        0
 40
0.045
309
GRIDFORMAT_END
 95
       32
302
GRIDFORMAT
  1
GRIDFORMAT_BEGIN
 90
        0
 91
        1
 62
     0
 92
       -2
340
14
 93
        0
 40
0.045
309
GRIDFORMAT_END
309
TABLEFORMAT_END
  1
CELLSTYLE_BEGIN
 90
        2
 91
        1
300
_HEADER
309
CELLSTYLE_END
300
CELLSTYLE
  1
TABLEFORMAT_BEGIN
 90
        5
170
     1
 91
        0
 92
        0
 62
   257
 93
        1
300
CONTENTFORMAT
  1
CONTENTFORMAT_BEGIN
 90
        0
 91
        0
 92
        4
 93
        0
300

 40
0.0
140
1.0
 94
        2
 62
     0
340
11
144
4.5
309
CONTENTFORMAT_END
171
     1
301
MARGIN
  1
CELLMARGIN_BEGIN
 40
1.5
 40
1.5
 40
1.5
 40
1.5
 40
1.5
 40
1.5
309
CELLMARGIN_END
 94
        6
 95
        1
302
GRIDFORMAT
  1
GRIDFORMAT_BEGIN
 90
        0
 91
        1
 62
     0
 92
       -2
340
14
 93
        0
 40
0.045
309
GRIDFORMAT_END
 95
        2
302
GRIDFORMAT
  1
GRIDFORMAT_BEGIN
 90
        0
 91
        1
 62
     0
 92
       -2
340
14
 93
        0
 40
0.045
309
GRIDFORMAT_END
 95
        4
302
GRIDFORMAT
  1
GRIDFORMAT_BEGIN
 90
        0
 91
        1
 62
     0
 92
       -2
340
14
 93
        0
 40
0.045
309
GRIDFORMAT_END
 95
        8
302
GRIDFORMAT
  1
GRIDFORMAT_BEGIN
 90
        0
 91
        1
 62
     0
 92
       -2
340
14
 93
        0
 40
0.045
309
GRIDFORMAT_END
 95
       16
302
GRIDFORMAT
  1
GRIDFORMAT_BEGIN
 90
        0
 91
        1
 62
     0
 92
       -2
340
14
 93
        0
 40
0.045
309
GRIDFORMAT_END
 95
       32
302
GRIDFORMAT
  1
GRIDFORMAT_BEGIN
 90
        0
 91
        1
 62
     0
 92
       -2
340
14
 93
        0
 40
0.045
309
GRIDFORMAT_END
309
TABLEFORMAT_END
  1
CELLSTYLE_BEGIN
 90
        3
 91
        2
300
_DATA
309
CELLSTYLE_END
  0
XRECORD
  5
26C
102
{ACAD_REACTORS
330
26B
102
}
330
26B
100
AcDbXrecord
280
     1
102
RTVSPost2010Prop28
280
     1
102
RTVSPost2010PropOp28
 70
     1
102
RTVSPost2010Prop29
280
     1
102
RTVSPost2010PropOp29
 70
     1
102
RTVSPost2010Prop30
280
     0
102
RTVSPost2010PropOp30
 70
     1
102
RTVSPost2010Prop31
280
     0
102
RTVSPost2010PropOp31
 70
     1
102
RTVSPost2010Prop32
280
     0
102
RTVSPost2010PropOp32
 70
     1
102
RTVSPost2010Prop33
280
     0
102
RTVSPost2010PropOp33
 70
     1
102
RTVSPost2010Prop34
280
     0
102
RTVSPost2010PropOp34
 70
     1
102
RTVSPost2010Prop35
280
     0
102
RTVSPost2010PropOp35
 70
     1
102
RTVSPost2010Prop36
280
     0
102
RTVSPost2010PropOp36
 70
     1
102
RTVSPost2010Prop37
 90
       50
102
RTVSPost2010PropOp37
 70
     1
102
RTVSPost2010Prop38
140
0.0
102
RTVSPost2010PropOp38
 70
     1
102
RTVSPost2010Prop39
140
1.0
102
RTVSPost2010PropOp39
 70
     1
102
RTVSPost2010Prop40
 90
        0
102
RTVSPost2010PropOp40
 70
     1
102
RTVSPost2010Prop41ColorIndex
 90
       18
102
RTVSPost2010Prop41ColorRGB
 90
        0
102
RTVSPost2010PropOp41
 70
     1
102
RTVSPost2010Prop42
 90
       50
102
RTVSPost2010PropOp42
 70
     1
102
RTVSPost2010Prop43
 90
        3
102
RTVSPost2010PropOp43
 70
     1
102
RTVSPost2010Prop44ColorIndex
 90
        5
102
RTVSPost2010Prop44ColorRGB
 90
      255
102
RTVSPost2010PropOp44
 70
     1
102
RTVSPost2010Prop45
280
     0
102
RTVSPost2010PropOp45
 70
     1
102
RTVSPost2010Prop46
 90
       50
102
RTVSPost2010PropOp46
 70
     1
102
RTVSPost2010Prop47
 90
       50
102
RTVSPost2010PropOp47
 70
     1
102
RTVSPost2010Prop48
 90
       50
102
RTVSPost2010PropOp48
 70
     1
102
RTVSPost2010Prop49
280
     0
102
RTVSPost2010PropOp49
 70
     1
102
RTVSPost2010Prop50
 90
       50
102
RTVSPost2010PropOp50
 70
     1
102
RTVSPost2010Prop51ColorIndex
 90
      256
102
RTVSPost2010Prop51ColorRGB
 90
-16777216
102
RTVSPost2010PropOp51
 70
     0
102
RTVSPost2010Prop52
140
1.0
102
RTVSPost2010PropOp52
 70
     0
102
RTVSPost2010Prop53
 90
        2
102
RTVSPost2010PropOp53
 70
     1
102
RTVSPost2010Prop54
  1
strokes_ogs.tif
102
RTVSPost2010PropOp54
 70
     1
102
RTVSPost2010Prop55
280
     0
102
RTVSPost2010PropOp55
 70
     1
102
RTVSPost2010Prop56
140
1.0
102
RTVSPost2010PropOp56
 70
     1
102
RTVSPost2010Prop57
140
1.0
102
RTVSPost2010PropOp57
 70
     1
  0
XRECORD
  5
272
102
{ACAD_REACTORS
330
271
102
}
330
271
100
AcDbXrecord
280
     1
102
RTVSPost2010Prop28
280
     0
102
RTVSPost2010PropOp28
 70
     1
102
RTVSPost2010Prop29
280
     1
102
RTVSPost2010PropOp29
 70
     1
102
RTVSPost2010Prop30
280
     1
102
RTVSPost2010PropOp30
 70
     1
102
RTVSPost2010Prop31
280
     0
102
RTVSPost2010PropOp31
 70
     1
102
RTVSPost2010Prop32
280
     0
102
RTVSPost2010PropOp32
 70
     1
102
RTVSPost2010Prop33
280
     0
102
RTVSPost2010PropOp33
 70
     1
102
RTVSPost2010Prop34
280
     0
102
RTVSPost2010PropOp34
 70
     1
102
RTVSPost2010Prop35
280
     0
102
RTVSPost2010PropOp35
 70
     1
102
RTVSPost2010Prop36
280
     0
102
RTVSPost2010PropOp36
 70
     1
102
RTVSPost2010Prop37
 90
       50
102
RTVSPost2010PropOp37
 70
     1
102
RTVSPost2010Prop38
140
0.0
102
RTVSPost2010PropOp38
 70
     1
102
RTVSPost2010Prop39
140
1.0
102
RTVSPost2010PropOp39
 70
     1
102
RTVSPost2010Prop40
 90
        0
102
RTVSPost2010PropOp40
 70
     1
102
RTVSPost2010Prop41ColorIndex
 90
       18
102
RTVSPost2010Prop41ColorRGB
 90
        0
102
RTVSPost2010PropOp41
 70
     1
102
RTVSPost2010Prop42
 90
       50
102
RTVSPost2010PropOp42
 70
     1
102
RTVSPost2010Prop43
 90
        3
102
RTVSPost2010PropOp43
 70
     1
102
RTVSPost2010Prop44ColorIndex
 90
        5
102
RTVSPost2010Prop44ColorRGB
 90
      255
102
RTVSPost2010PropOp44
 70
     1
102
RTVSPost2010Prop45
280
     0
102
RTVSPost2010PropOp45
 70
     1
102
RTVSPost2010Prop46
 90
       50
102
RTVSPost2010PropOp46
 70
     1
102
RTVSPost2010Prop47
 90
       50
102
RTVSPost2010PropOp47
 70
     1
102
RTVSPost2010Prop48
 90
       50
102
RTVSPost2010PropOp48
 70
     1
102
RTVSPost2010Prop49
280
     0
102
RTVSPost2010PropOp49
 70
     1
102
RTVSPost2010Prop50
 90
       50
102
RTVSPost2010PropOp50
 70
     1
102
RTVSPost2010Prop51ColorIndex
 90
      256
102
RTVSPost2010Prop51ColorRGB
 90
-16777216
102
RTVSPost2010PropOp51
 70
     0
102
RTVSPost2010Prop52
140
1.0
102
RTVSPost2010PropOp52
 70
     0
102
RTVSPost2010Prop53
 90
        2
102
RTVSPost2010PropOp53
 70
     1
102
RTVSPost2010Prop54
  1
strokes_ogs.tif
102
RTVSPost2010PropOp54
 70
     1
102
RTVSPost2010Prop55
280
     0
102
RTVSPost2010PropOp55
 70
     1
102
RTVSPost2010Prop56
140
1.0
102
RTVSPost2010PropOp56
 70
     1
102
RTVSPost2010Prop57
140
1.0
102
RTVSPost2010PropOp57
 70
     1
  0
XRECORD
  5
27A
102
{ACAD_REACTORS
330
279
102
}
330
279
100
AcDbXrecord
280
     1
102
RTVSPost2010Prop28
280
     0
102
RTVSPost2010PropOp28
 70
     1
102
RTVSPost2010Prop29
280
     1
102
RTVSPost2010PropOp29
 70
     1
102
RTVSPost2010Prop30
280
     1
102
RTVSPost2010PropOp30
 70
     1
102
RTVSPost2010Prop31
280
     0
102
RTVSPost2010PropOp31
 70
     1
102
RTVSPost2010Prop32
280
     0
102
RTVSPost2010PropOp32
 70
     1
102
RTVSPost2010Prop33
280
     0
102
RTVSPost2010PropOp33
 70
     1
102
RTVSPost2010Prop34
280
     0
102
RTVSPost2010PropOp34
 70
     1
102
RTVSPost2010Prop35
280
     0
102
RTVSPost2010PropOp35
 70
     1
102
RTVSPost2010Prop36
280
     0
102
RTVSPost2010PropOp36
 70
     1
102
RTVSPost2010Prop37
 90
       50
102
RTVSPost2010PropOp37
 70
     1
102
RTVSPost2010Prop38
140
0.0
102
RTVSPost2010PropOp38
 70
     1
102
RTVSPost2010Prop39
140
1.0
102
RTVSPost2010PropOp39
 70
     1
102
RTVSPost2010Prop40
 90
        0
102
RTVSPost2010PropOp40
 70
     1
102
RTVSPost2010Prop41ColorIndex
 90
       18
102
RTVSPost2010Prop41ColorRGB
 90
        0
102
RTVSPost2010PropOp41
 70
     1
102
RTVSPost2010Prop42
 90
       50
102
RTVSPost2010PropOp42
 70
     1
102
RTVSPost2010Prop43
 90
        3
102
RTVSPost2010PropOp43
 70
     1
102
RTVSPost2010Prop44ColorIndex
 90
        5
102
RTVSPost2010Prop44ColorRGB
 90
      255
102
RTVSPost2010PropOp44
 70
     1
102
RTVSPost2010Prop45
280
     0
102
RTVSPost2010PropOp45
 70
     1
102
RTVSPost2010Prop46
 90
       50
102
RTVSPost2010PropOp46
 70
     1
102
RTVSPost2010Prop47
 90
       50
102
RTVSPost2010PropOp47
 70
     1
102
RTVSPost2010Prop48
 90
       50
102
RTVSPost2010PropOp48
 70
     1
102
RTVSPost2010Prop49
280
     0
102
RTVSPost2010PropOp49
 70
     1
102
RTVSPost2010Prop50
 90
       50
102
RTVSPost2010PropOp50
 70
     1
102
RTVSPost2010Prop51ColorIndex
 90
      256
102
RTVSPost2010Prop51ColorRGB
 90
-16777216
102
RTVSPost2010PropOp51
 70
     0
102
RTVSPost2010Prop52
140
1.0
102
RTVSPost2010PropOp52
 70
     0
102
RTVSPost2010Prop53
 90
        2
102
RTVSPost2010PropOp53
 70
     1
102
RTVSPost2010Prop54
  1
strokes_ogs.tif
102
RTVSPost2010PropOp54
 70
     1
102
RTVSPost2010Prop55
280
     0
102
RTVSPost2010PropOp55
 70
     1
102
RTVSPost2010Prop56
140
1.0
102
RTVSPost2010PropOp56
 70
     1
102
RTVSPost2010Prop57
140
1.0
102
RTVSPost2010PropOp57
 70
     1
  0
XRECORD
  5
282
102
{ACAD_REACTORS
330
281
102
}
330
281
100
AcDbXrecord
280
     1
102
RTVSPost2010Prop28
280
     0
102
RTVSPost2010PropOp28
 70
     1
102
RTVSPost2010Prop29
280
     1
102
RTVSPost2010PropOp29
 70
     1
102
RTVSPost2010Prop30
280
     1
102
RTVSPost2010PropOp30
 70
     1
102
RTVSPost2010Prop31
280
     0
102
RTVSPost2010PropOp31
 70
     1
102
RTVSPost2010Prop32
280
     0
102
RTVSPost2010PropOp32
 70
     1
102
RTVSPost2010Prop33
280
     0
102
RTVSPost2010PropOp33
 70
     1
102
RTVSPost2010Prop34
280
     0
102
RTVSPost2010PropOp34
 70
     1
102
RTVSPost2010Prop35
280
     0
102
RTVSPost2010PropOp35
 70
     1
102
RTVSPost2010Prop36
280
     0
102
RTVSPost2010PropOp36
 70
     1
102
RTVSPost2010Prop37
 90
       50
102
RTVSPost2010PropOp37
 70
     1
102
RTVSPost2010Prop38
140
0.0
102
RTVSPost2010PropOp38
 70
     1
102
RTVSPost2010Prop39
140
1.0
102
RTVSPost2010PropOp39
 70
     1
102
RTVSPost2010Prop40
 90
        0
102
RTVSPost2010PropOp40
 70
     1
102
RTVSPost2010Prop41ColorIndex
 90
       18
102
RTVSPost2010Prop41ColorRGB
 90
        0
102
RTVSPost2010PropOp41
 70
     1
102
RTVSPost2010Prop42
 90
       50
102
RTVSPost2010PropOp42
 70
     1
102
RTVSPost2010Prop43
 90
        3
102
RTVSPost2010PropOp43
 70
     1
102
RTVSPost2010Prop44ColorIndex
 90
        5
102
RTVSPost2010Prop44ColorRGB
 90
      255
102
RTVSPost2010PropOp44
 70
     1
102
RTVSPost2010Prop45
280
     0
102
RTVSPost2010PropOp45
 70
     1
102
RTVSPost2010Prop46
 90
       50
102
RTVSPost2010PropOp46
 70
     1
102
RTVSPost2010Prop47
 90
       50
102
RTVSPost2010PropOp47
 70
     1
102
RTVSPost2010Prop48
 90
       50
102
RTVSPost2010PropOp48
 70
     1
102
RTVSPost2010Prop49
280
     0
102
RTVSPost2010PropOp49
 70
     1
102
RTVSPost2010Prop50
 90
       50
102
RTVSPost2010PropOp50
 70
     1
102
RTVSPost2010Prop51ColorIndex
 90
      256
102
RTVSPost2010Prop51ColorRGB
 90
-16777216
102
RTVSPost2010PropOp51
 70
     0
102
RTVSPost2010Prop52
140
1.0
102
RTVSPost2010PropOp52
 70
     0
102
RTVSPost2010Prop53
 90
        2
102
RTVSPost2010PropOp53
 70
     1
102
RTVSPost2010Prop54
  1
strokes_ogs.tif
102
RTVSPost2010PropOp54
 70
     1
102
RTVSPost2010Prop55
280
     0
102
RTVSPost2010PropOp55
 70
     1
102
RTVSPost2010Prop56
140
1.0
102
RTVSPost2010PropOp56
 70
     1
102
RTVSPost2010Prop57
140
1.0
102
RTVSPost2010PropOp57
 70
     1
  0
XRECORD
  5
276
102
{ACAD_REACTORS
330
275
102
}
330
275
100
AcDbXrecord
280
     1
102
RTVSPost2010Prop28
280
     0
102
RTVSPost2010PropOp28
 70
     1
102
RTVSPost2010Prop29
280
     1
102
RTVSPost2010PropOp29
 70
     1
102
RTVSPost2010Prop30
280
     1
102
RTVSPost2010PropOp30
 70
     1
102
RTVSPost2010Prop31
280
     0
102
RTVSPost2010PropOp31
 70
     1
102
RTVSPost2010Prop32
280
     0
102
RTVSPost2010PropOp32
 70
     1
102
RTVSPost2010Prop33
280
     0
102
RTVSPost2010PropOp33
 70
     1
102
RTVSPost2010Prop34
280
     0
102
RTVSPost2010PropOp34
 70
     1
102
RTVSPost2010Prop35
280
     0
102
RTVSPost2010PropOp35
 70
     1
102
RTVSPost2010Prop36
280
     0
102
RTVSPost2010PropOp36
 70
     1
102
RTVSPost2010Prop37
 90
       50
102
RTVSPost2010PropOp37
 70
     1
102
RTVSPost2010Prop38
140
0.0
102
RTVSPost2010PropOp38
 70
     1
102
RTVSPost2010Prop39
140
1.0
102
RTVSPost2010PropOp39
 70
     1
102
RTVSPost2010Prop40
 90
        0
102
RTVSPost2010PropOp40
 70
     1
102
RTVSPost2010Prop41ColorIndex
 90
       18
102
RTVSPost2010Prop41ColorRGB
 90
        0
102
RTVSPost2010PropOp41
 70
     1
102
RTVSPost2010Prop42
 90
       50
102
RTVSPost2010PropOp42
 70
     1
102
RTVSPost2010Prop43
 90
        3
102
RTVSPost2010PropOp43
 70
     1
102
RTVSPost2010Prop44ColorIndex
 90
        5
102
RTVSPost2010Prop44ColorRGB
 90
      255
102
RTVSPost2010PropOp44
 70
     1
102
RTVSPost2010Prop45
280
     0
102
RTVSPost2010PropOp45
 70
     1
102
RTVSPost2010Prop46
 90
       50
102
RTVSPost2010PropOp46
 70
     1
102
RTVSPost2010Prop47
 90
       50
102
RTVSPost2010PropOp47
 70
     1
102
RTVSPost2010Prop48
 90
       50
102
RTVSPost2010PropOp48
 70
     1
102
RTVSPost2010Prop49
280
     0
102
RTVSPost2010PropOp49
 70
     1
102
RTVSPost2010Prop50
 90
       50
102
RTVSPost2010PropOp50
 70
     1
102
RTVSPost2010Prop51ColorIndex
 90
      256
102
RTVSPost2010Prop51ColorRGB
 90
-16777216
102
RTVSPost2010PropOp51
 70
     0
102
RTVSPost2010Prop52
140
1.0
102
RTVSPost2010PropOp52
 70
     0
102
RTVSPost2010Prop53
 90
        2
102
RTVSPost2010PropOp53
 70
     1
102
RTVSPost2010Prop54
  1
strokes_ogs.tif
102
RTVSPost2010PropOp54
 70
     1
102
RTVSPost2010Prop55
280
     0
102
RTVSPost2010PropOp55
 70
     1
102
RTVSPost2010Prop56
140
1.0
102
RTVSPost2010PropOp56
 70
     1
102
RTVSPost2010Prop57
140
1.0
102
RTVSPost2010PropOp57
 70
     1
  0
XRECORD
  5
278
102
{ACAD_REACTORS
330
277
102
}
330
277
100
AcDbXrecord
280
     1
102
RTVSPost2010Prop28
280
     0
102
RTVSPost2010PropOp28
 70
     1
102
RTVSPost2010Prop29
280
     1
102
RTVSPost2010PropOp29
 70
     1
102
RTVSPost2010Prop30
280
     1
102
RTVSPost2010PropOp30
 70
     1
102
RTVSPost2010Prop31
280
     0
102
RTVSPost2010PropOp31
 70
     1
102
RTVSPost2010Prop32
280
     0
102
RTVSPost2010PropOp32
 70
     1
102
RTVSPost2010Prop33
280
     0
102
RTVSPost2010PropOp33
 70
     1
102
RTVSPost2010Prop34
280
     0
102
RTVSPost2010PropOp34
 70
     1
102
RTVSPost2010Prop35
280
     0
102
RTVSPost2010PropOp35
 70
     1
102
RTVSPost2010Prop36
280
     0
102
RTVSPost2010PropOp36
 70
     1
102
RTVSPost2010Prop37
 90
       50
102
RTVSPost2010PropOp37
 70
     1
102
RTVSPost2010Prop38
140
0.0
102
RTVSPost2010PropOp38
 70
     1
102
RTVSPost2010Prop39
140
1.0
102
RTVSPost2010PropOp39
 70
     1
102
RTVSPost2010Prop40
 90
        0
102
RTVSPost2010PropOp40
 70
     1
102
RTVSPost2010Prop41ColorIndex
 90
       18
102
RTVSPost2010Prop41ColorRGB
 90
        0
102
RTVSPost2010PropOp41
 70
     1
102
RTVSPost2010Prop42
 90
       50
102
RTVSPost2010PropOp42
 70
     1
102
RTVSPost2010Prop43
 90
        3
102
RTVSPost2010PropOp43
 70
     1
102
RTVSPost2010Prop44ColorIndex
 90
        5
102
RTVSPost2010Prop44ColorRGB
 90
      255
102
RTVSPost2010PropOp44
 70
     1
102
RTVSPost2010Prop45
280
     0
102
RTVSPost2010PropOp45
 70
     1
102
RTVSPost2010Prop46
 90
       50
102
RTVSPost2010PropOp46
 70
     1
102
RTVSPost2010Prop47
 90
       50
102
RTVSPost2010PropOp47
 70
     1
102
RTVSPost2010Prop48
 90
       50
102
RTVSPost2010PropOp48
 70
     1
102
RTVSPost2010Prop49
280
     0
102
RTVSPost2010PropOp49
 70
     1
102
RTVSPost2010Prop50
 90
       50
102
RTVSPost2010PropOp50
 70
     1
102
RTVSPost2010Prop51ColorIndex
 90
      256
102
RTVSPost2010Prop51ColorRGB
 90
-16777216
102
RTVSPost2010PropOp51
 70
     0
102
RTVSPost2010Prop52
140
1.0
102
RTVSPost2010PropOp52
 70
     0
102
RTVSPost2010Prop53
 90
        2
102
RTVSPost2010PropOp53
 70
     1
102
RTVSPost2010Prop54
  1
strokes_ogs.tif
102
RTVSPost2010PropOp54
 70
     1
102
RTVSPost2010Prop55
280
     0
102
RTVSPost2010PropOp55
 70
     1
102
RTVSPost2010Prop56
140
1.0
102
RTVSPost2010PropOp56
 70
     1
102
RTVSPost2010Prop57
140
1.0
102
RTVSPost2010PropOp57
 70
     1
  0
XRECORD
  5
288
102
{ACAD_REACTORS
330
287
102
}
330
287
100
AcDbXrecord
280
     1
102
RTVSPost2010Prop28
280
     0
102
RTVSPost2010PropOp28
 70
     0
102
RTVSPost2010Prop29
280
     1
102
RTVSPost2010PropOp29
 70
     0
102
RTVSPost2010Prop30
280
     1
102
RTVSPost2010PropOp30
 70
     0
102
RTVSPost2010Prop31
280
     0
102
RTVSPost2010PropOp31
 70
     0
102
RTVSPost2010Prop32
280
     0
102
RTVSPost2010PropOp32
 70
     0
102
RTVSPost2010Prop33
280
     0
102
RTVSPost2010PropOp33
 70
     0
102
RTVSPost2010Prop34
280
     0
102
RTVSPost2010PropOp34
 70
     0
102
RTVSPost2010Prop35
280
     0
102
RTVSPost2010PropOp35
 70
     0
102
RTVSPost2010Prop36
280
     0
102
RTVSPost2010PropOp36
 70
     0
102
RTVSPost2010Prop37
 90
       50
102
RTVSPost2010PropOp37
 70
     0
102
RTVSPost2010Prop38
140
0.0
102
RTVSPost2010PropOp38
 70
     0
102
RTVSPost2010Prop39
140
1.0
102
RTVSPost2010PropOp39
 70
     0
102
RTVSPost2010Prop40
 90
        0
102
RTVSPost2010PropOp40
 70
     0
102
RTVSPost2010Prop41ColorIndex
 90
       18
102
RTVSPost2010Prop41ColorRGB
 90
        0
102
RTVSPost2010PropOp41
 70
     0
102
RTVSPost2010Prop42
 90
       50
102
RTVSPost2010PropOp42
 70
     0
102
RTVSPost2010Prop43
 90
        3
102
RTVSPost2010PropOp43
 70
     0
102
RTVSPost2010Prop44ColorIndex
 90
        5
102
RTVSPost2010Prop44ColorRGB
 90
      255
102
RTVSPost2010PropOp44
 70
     0
102
RTVSPost2010Prop45
280
     0
102
RTVSPost2010PropOp45
 70
     0
102
RTVSPost2010Prop46
 90
       50
102
RTVSPost2010PropOp46
 70
     0
102
RTVSPost2010Prop47
 90
       50
102
RTVSPost2010PropOp47
 70
     0
102
RTVSPost2010Prop48
 90
       50
102
RTVSPost2010PropOp48
 70
     0
102
RTVSPost2010Prop49
280
     0
102
RTVSPost2010PropOp49
 70
     0
102
RTVSPost2010Prop50
 90
       50
102
RTVSPost2010PropOp50
 70
     0
102
RTVSPost2010Prop51ColorIndex
 90
      256
102
RTVSPost2010Prop51ColorRGB
 90
-16777216
102
RTVSPost2010PropOp51
 70
     0
102
RTVSPost2010Prop52
140
1.0
102
RTVSPost2010PropOp52
 70
     0
102
RTVSPost2010Prop53
 90
        2
102
RTVSPost2010PropOp53
 70
     0
102
RTVSPost2010Prop54
  1
strokes_ogs.tif
102
RTVSPost2010PropOp54
 70
     0
102
RTVSPost2010Prop55
280
     0
102
RTVSPost2010PropOp55
 70
     0
102
RTVSPost2010Prop56
140
1.0
102
RTVSPost2010PropOp56
 70
     0
102
RTVSPost2010Prop57
140
1.0
102
RTVSPost2010PropOp57
 70
     0
  0
XRECORD
  5
280
102
{ACAD_REACTORS
330
27F
102
}
330
27F
100
AcDbXrecord
280
     1
102
RTVSPost2010Prop28
280
     0
102
RTVSPost2010PropOp28
 70
     1
102
RTVSPost2010Prop29
280
     1
102
RTVSPost2010PropOp29
 70
     1
102
RTVSPost2010Prop30
280
     1
102
RTVSPost2010PropOp30
 70
     1
102
RTVSPost2010Prop31
280
     0
102
RTVSPost2010PropOp31
 70
     1
102
RTVSPost2010Prop32
280
     0
102
RTVSPost2010PropOp32
 70
     1
102
RTVSPost2010Prop33
280
     0
102
RTVSPost2010PropOp33
 70
     1
102
RTVSPost2010Prop34
280
     0
102
RTVSPost2010PropOp34
 70
     1
102
RTVSPost2010Prop35
280
     0
102
RTVSPost2010PropOp35
 70
     1
102
RTVSPost2010Prop36
280
     0
102
RTVSPost2010PropOp36
 70
     1
102
RTVSPost2010Prop37
 90
       50
102
RTVSPost2010PropOp37
 70
     1
102
RTVSPost2010Prop38
140
0.0
102
RTVSPost2010PropOp38
 70
     1
102
RTVSPost2010Prop39
140
1.0
102
RTVSPost2010PropOp39
 70
     1
102
RTVSPost2010Prop40
 90
        0
102
RTVSPost2010PropOp40
 70
     1
102
RTVSPost2010Prop41ColorIndex
 90
       18
102
RTVSPost2010Prop41ColorRGB
 90
        0
102
RTVSPost2010PropOp41
 70
     1
102
RTVSPost2010Prop42
 90
       50
102
RTVSPost2010PropOp42
 70
     1
102
RTVSPost2010Prop43
 90
        3
102
RTVSPost2010PropOp43
 70
     1
102
RTVSPost2010Prop44ColorIndex
 90
        5
102
RTVSPost2010Prop44ColorRGB
 90
      255
102
RTVSPost2010PropOp44
 70
     1
102
RTVSPost2010Prop45
280
     0
102
RTVSPost2010PropOp45
 70
     1
102
RTVSPost2010Prop46
 90
       50
102
RTVSPost2010PropOp46
 70
     1
102
RTVSPost2010Prop47
 90
       50
102
RTVSPost2010PropOp47
 70
     1
102
RTVSPost2010Prop48
 90
       50
102
RTVSPost2010PropOp48
 70
     1
102
RTVSPost2010Prop49
280
     0
102
RTVSPost2010PropOp49
 70
     1
102
RTVSPost2010Prop50
 90
       50
102
RTVSPost2010PropOp50
 70
     1
102
RTVSPost2010Prop51ColorIndex
 90
      256
102
RTVSPost2010Prop51ColorRGB
 90
-16777216
102
RTVSPost2010PropOp51
 70
     0
102
RTVSPost2010Prop52
140
1.0
102
RTVSPost2010PropOp52
 70
     0
102
RTVSPost2010Prop53
 90
        2
102
RTVSPost2010PropOp53
 70
     1
102
RTVSPost2010Prop54
  1
strokes_ogs.tif
102
RTVSPost2010PropOp54
 70
     1
102
RTVSPost2010Prop55
280
     0
102
RTVSPost2010PropOp55
 70
     1
102
RTVSPost2010Prop56
140
1.0
102
RTVSPost2010PropOp56
 70
     1
102
RTVSPost2010Prop57
140
1.0
102
RTVSPost2010PropOp57
 70
     1
  0
XRECORD
  5
264
102
{ACAD_REACTORS
330
263
102
}
330
263
100
AcDbXrecord
280
     1
102
RTVSPost2010Prop28
280
     0
102
RTVSPost2010PropOp28
 70
     1
102
RTVSPost2010Prop29
280
     1
102
RTVSPost2010PropOp29
 70
     1
102
RTVSPost2010Prop30
280
     1
102
RTVSPost2010PropOp30
 70
     1
102
RTVSPost2010Prop31
280
     0
102
RTVSPost2010PropOp31
 70
     1
102
RTVSPost2010Prop32
280
     0
102
RTVSPost2010PropOp32
 70
     1
102
RTVSPost2010Prop33
280
     0
102
RTVSPost2010PropOp33
 70
     1
102
RTVSPost2010Prop34
280
     0
102
RTVSPost2010PropOp34
 70
     1
102
RTVSPost2010Prop35
280
     0
102
RTVSPost2010PropOp35
 70
     1
102
RTVSPost2010Prop36
280
     0
102
RTVSPost2010PropOp36
 70
     1
102
RTVSPost2010Prop37
 90
       50
102
RTVSPost2010PropOp37
 70
     1
102
RTVSPost2010Prop38
140
0.0
102
RTVSPost2010PropOp38
 70
     1
102
RTVSPost2010Prop39
140
1.0
102
RTVSPost2010PropOp39
 70
     1
102
RTVSPost2010Prop40
 90
        0
102
RTVSPost2010PropOp40
 70
     1
102
RTVSPost2010Prop41ColorIndex
 90
       18
102
RTVSPost2010Prop41ColorRGB
 90
        0
102
RTVSPost2010PropOp41
 70
     1
102
RTVSPost2010Prop42
 90
       50
102
RTVSPost2010PropOp42
 70
     1
102
RTVSPost2010Prop43
 90
        3
102
RTVSPost2010PropOp43
 70
     1
102
RTVSPost2010Prop44ColorIndex
 90
        5
102
RTVSPost2010Prop44ColorRGB
 90
      255
102
RTVSPost2010PropOp44
 70
     1
102
RTVSPost2010Prop45
280
     0
102
RTVSPost2010PropOp45
 70
     1
102
RTVSPost2010Prop46
 90
       50
102
RTVSPost2010PropOp46
 70
     1
102
RTVSPost2010Prop47
 90
       50
102
RTVSPost2010PropOp47
 70
     1
102
RTVSPost2010Prop48
 90
       50
102
RTVSPost2010PropOp48
 70
     1
102
RTVSPost2010Prop49
280
     0
102
RTVSPost2010PropOp49
 70
     1
102
RTVSPost2010Prop50
 90
       50
102
RTVSPost2010PropOp50
 70
     1
102
RTVSPost2010Prop51ColorIndex
 90
      256
102
RTVSPost2010Prop51ColorRGB
 90
-16777216
102
RTVSPost2010PropOp51
 70
     0
102
RTVSPost2010Prop52
140
1.0
102
RTVSPost2010PropOp52
 70
     0
102
RTVSPost2010Prop53
 90
        2
102
RTVSPost2010PropOp53
 70
     1
102
RTVSPost2010Prop54
  1
strokes_ogs.tif
102
RTVSPost2010PropOp54
 70
     1
102
RTVSPost2010Prop55
280
     0
102
RTVSPost2010PropOp55
 70
     1
102
RTVSPost2010Prop56
140
1.0
102
RTVSPost2010PropOp56
 70
     1
102
RTVSPost2010Prop57
140
1.0
102
RTVSPost2010PropOp57
 70
     1
  0
XRECORD
  5
266
102
{ACAD_REACTORS
330
265
102
}
330
265
100
AcDbXrecord
280
     1
102
RTVSPost2010Prop28
280
     0
102
RTVSPost2010PropOp28
 70
     1
102
RTVSPost2010Prop29
280
     1
102
RTVSPost2010PropOp29
 70
     1
102
RTVSPost2010Prop30
280
     1
102
RTVSPost2010PropOp30
 70
     1
102
RTVSPost2010Prop31
280
     0
102
RTVSPost2010PropOp31
 70
     1
102
RTVSPost2010Prop32
280
     0
102
RTVSPost2010PropOp32
 70
     1
102
RTVSPost2010Prop33
280
     0
102
RTVSPost2010PropOp33
 70
     1
102
RTVSPost2010Prop34
280
     0
102
RTVSPost2010PropOp34
 70
     1
102
RTVSPost2010Prop35
280
     0
102
RTVSPost2010PropOp35
 70
     1
102
RTVSPost2010Prop36
280
     0
102
RTVSPost2010PropOp36
 70
     1
102
RTVSPost2010Prop37
 90
       50
102
RTVSPost2010PropOp37
 70
     1
102
RTVSPost2010Prop38
140
0.0
102
RTVSPost2010PropOp38
 70
     1
102
RTVSPost2010Prop39
140
1.0
102
RTVSPost2010PropOp39
 70
     1
102
RTVSPost2010Prop40
 90
        0
102
RTVSPost2010PropOp40
 70
     1
102
RTVSPost2010Prop41ColorIndex
 90
       18
102
RTVSPost2010Prop41ColorRGB
 90
        0
102
RTVSPost2010PropOp41
 70
     1
102
RTVSPost2010Prop42
 90
       50
102
RTVSPost2010PropOp42
 70
     1
102
RTVSPost2010Prop43
 90
        3
102
RTVSPost2010PropOp43
 70
     1
102
RTVSPost2010Prop44ColorIndex
 90
        5
102
RTVSPost2010Prop44ColorRGB
 90
      255
102
RTVSPost2010PropOp44
 70
     1
102
RTVSPost2010Prop45
280
     0
102
RTVSPost2010PropOp45
 70
     1
102
RTVSPost2010Prop46
 90
       50
102
RTVSPost2010PropOp46
 70
     1
102
RTVSPost2010Prop47
 90
       50
102
RTVSPost2010PropOp47
 70
     1
102
RTVSPost2010Prop48
 90
       50
102
RTVSPost2010PropOp48
 70
     1
102
RTVSPost2010Prop49
280
     0
102
RTVSPost2010PropOp49
 70
     1
102
RTVSPost2010Prop50
 90
       50
102
RTVSPost2010PropOp50
 70
     1
102
RTVSPost2010Prop51ColorIndex
 90
      256
102
RTVSPost2010Prop51ColorRGB
 90
-16777216
102
RTVSPost2010PropOp51
 70
     0
102
RTVSPost2010Prop52
140
1.0
102
RTVSPost2010PropOp52
 70
     0
102
RTVSPost2010Prop53
 90
        2
102
RTVSPost2010PropOp53
 70
     1
102
RTVSPost2010Prop54
  1
strokes_ogs.tif
102
RTVSPost2010PropOp54
 70
     1
102
RTVSPost2010Prop55
280
     0
102
RTVSPost2010PropOp55
 70
     1
102
RTVSPost2010Prop56
140
1.0
102
RTVSPost2010PropOp56
 70
     1
102
RTVSPost2010Prop57
140
1.0
102
RTVSPost2010PropOp57
 70
     1
  0
XRECORD
  5
268
102
{ACAD_REACTORS
330
267
102
}
330
267
100
AcDbXrecord
280
     1
102
RTVSPost2010Prop28
280
     0
102
RTVSPost2010PropOp28
 70
     1
102
RTVSPost2010Prop29
280
     1
102
RTVSPost2010PropOp29
 70
     1
102
RTVSPost2010Prop30
280
     1
102
RTVSPost2010PropOp30
 70
     1
102
RTVSPost2010Prop31
280
     0
102
RTVSPost2010PropOp31
 70
     1
102
RTVSPost2010Prop32
280
     0
102
RTVSPost2010PropOp32
 70
     1
102
RTVSPost2010Prop33
280
     0
102
RTVSPost2010PropOp33
 70
     1
102
RTVSPost2010Prop34
280
     0
102
RTVSPost2010PropOp34
 70
     1
102
RTVSPost2010Prop35
280
     0
102
RTVSPost2010PropOp35
 70
     1
102
RTVSPost2010Prop36
280
     0
102
RTVSPost2010PropOp36
 70
     1
102
RTVSPost2010Prop37
 90
       50
102
RTVSPost2010PropOp37
 70
     1
102
RTVSPost2010Prop38
140
0.0
102
RTVSPost2010PropOp38
 70
     1
102
RTVSPost2010Prop39
140
1.0
102
RTVSPost2010PropOp39
 70
     1
102
RTVSPost2010Prop40
 90
        0
102
RTVSPost2010PropOp40
 70
     1
102
RTVSPost2010Prop41ColorIndex
 90
       18
102
RTVSPost2010Prop41ColorRGB
 90
        0
102
RTVSPost2010PropOp41
 70
     1
102
RTVSPost2010Prop42
 90
       50
102
RTVSPost2010PropOp42
 70
     1
102
RTVSPost2010Prop43
 90
        3
102
RTVSPost2010PropOp43
 70
     1
102
RTVSPost2010Prop44ColorIndex
 90
        5
102
RTVSPost2010Prop44ColorRGB
 90
      255
102
RTVSPost2010PropOp44
 70
     1
102
RTVSPost2010Prop45
280
     0
102
RTVSPost2010PropOp45
 70
     1
102
RTVSPost2010Prop46
 90
       50
102
RTVSPost2010PropOp46
 70
     1
102
RTVSPost2010Prop47
 90
       50
102
RTVSPost2010PropOp47
 70
     1
102
RTVSPost2010Prop48
 90
       50
102
RTVSPost2010PropOp48
 70
     1
102
RTVSPost2010Prop49
280
     0
102
RTVSPost2010PropOp49
 70
     1
102
RTVSPost2010Prop50
 90
       50
102
RTVSPost2010PropOp50
 70
     1
102
RTVSPost2010Prop51ColorIndex
 90
      256
102
RTVSPost2010Prop51ColorRGB
 90
-16777216
102
RTVSPost2010PropOp51
 70
     0
102
RTVSPost2010Prop52
140
1.0
102
RTVSPost2010PropOp52
 70
     0
102
RTVSPost2010Prop53
 90
        2
102
RTVSPost2010PropOp53
 70
     1
102
RTVSPost2010Prop54
  1
strokes_ogs.tif
102
RTVSPost2010PropOp54
 70
     1
102
RTVSPost2010Prop55
280
     0
102
RTVSPost2010PropOp55
 70
     1
102
RTVSPost2010Prop56
140
1.0
102
RTVSPost2010PropOp56
 70
     1
102
RTVSPost2010Prop57
140
1.0
102
RTVSPost2010PropOp57
 70
     1
  0
XRECORD
  5
26A
102
{ACAD_REACTORS
330
269
102
}
330
269
100
AcDbXrecord
280
     1
102
RTVSPost2010Prop28
280
     0
102
RTVSPost2010PropOp28
 70
     1
102
RTVSPost2010Prop29
280
     1
102
RTVSPost2010PropOp29
 70
     1
102
RTVSPost2010Prop30
280
     1
102
RTVSPost2010PropOp30
 70
     1
102
RTVSPost2010Prop31
280
     0
102
RTVSPost2010PropOp31
 70
     1
102
RTVSPost2010Prop32
280
     0
102
RTVSPost2010PropOp32
 70
     1
102
RTVSPost2010Prop33
280
     0
102
RTVSPost2010PropOp33
 70
     1
102
RTVSPost2010Prop34
280
     0
102
RTVSPost2010PropOp34
 70
     1
102
RTVSPost2010Prop35
280
     0
102
RTVSPost2010PropOp35
 70
     1
102
RTVSPost2010Prop36
280
     0
102
RTVSPost2010PropOp36
 70
     1
102
RTVSPost2010Prop37
 90
       50
102
RTVSPost2010PropOp37
 70
     1
102
RTVSPost2010Prop38
140
0.0
102
RTVSPost2010PropOp38
 70
     1
102
RTVSPost2010Prop39
140
1.0
102
RTVSPost2010PropOp39
 70
     1
102
RTVSPost2010Prop40
 90
        0
102
RTVSPost2010PropOp40
 70
     1
102
RTVSPost2010Prop41ColorIndex
 90
       18
102
RTVSPost2010Prop41ColorRGB
 90
        0
102
RTVSPost2010PropOp41
 70
     1
102
RTVSPost2010Prop42
 90
       50
102
RTVSPost2010PropOp42
 70
     1
102
RTVSPost2010Prop43
 90
        3
102
RTVSPost2010PropOp43
 70
     1
102
RTVSPost2010Prop44ColorIndex
 90
        5
102
RTVSPost2010Prop44ColorRGB
 90
      255
102
RTVSPost2010PropOp44
 70
     1
102
RTVSPost2010Prop45
280
     0
102
RTVSPost2010PropOp45
 70
     1
102
RTVSPost2010Prop46
 90
       50
102
RTVSPost2010PropOp46
 70
     1
102
RTVSPost2010Prop47
 90
       50
102
RTVSPost2010PropOp47
 70
     1
102
RTVSPost2010Prop48
 90
       50
102
RTVSPost2010PropOp48
 70
     1
102
RTVSPost2010Prop49
280
     0
102
RTVSPost2010PropOp49
 70
     1
102
RTVSPost2010Prop50
 90
       50
102
RTVSPost2010PropOp50
 70
     1
102
RTVSPost2010Prop51ColorIndex
 90
      256
102
RTVSPost2010Prop51ColorRGB
 90
-16777216
102
RTVSPost2010PropOp51
 70
     0
102
RTVSPost2010Prop52
140
1.0
102
RTVSPost2010PropOp52
 70
     0
102
RTVSPost2010Prop53
 90
        2
102
RTVSPost2010PropOp53
 70
     1
102
RTVSPost2010Prop54
  1
strokes_ogs.tif
102
RTVSPost2010PropOp54
 70
     1
102
RTVSPost2010Prop55
280
     0
102
RTVSPost2010PropOp55
 70
     1
102
RTVSPost2010Prop56
140
1.0
102
RTVSPost2010PropOp56
 70
     1
102
RTVSPost2010Prop57
140
1.0
102
RTVSPost2010PropOp57
 70
     1
  0
XRECORD
  5
270
102
{ACAD_REACTORS
330
26F
102
}
330
26F
100
AcDbXrecord
280
     1
102
RTVSPost2010Prop28
280
     0
102
RTVSPost2010PropOp28
 70
     1
102
RTVSPost2010Prop29
280
     1
102
RTVSPost2010PropOp29
 70
     1
102
RTVSPost2010Prop30
280
     1
102
RTVSPost2010PropOp30
 70
     1
102
RTVSPost2010Prop31
280
     0
102
RTVSPost2010PropOp31
 70
     1
102
RTVSPost2010Prop32
280
     0
102
RTVSPost2010PropOp32
 70
     1
102
RTVSPost2010Prop33
280
     0
102
RTVSPost2010PropOp33
 70
     1
102
RTVSPost2010Prop34
280
     0
102
RTVSPost2010PropOp34
 70
     1
102
RTVSPost2010Prop35
280
     0
102
RTVSPost2010PropOp35
 70
     1
102
RTVSPost2010Prop36
280
     0
102
RTVSPost2010PropOp36
 70
     1
102
RTVSPost2010Prop37
 90
       50
102
RTVSPost2010PropOp37
 70
     1
102
RTVSPost2010Prop38
140
0.0
102
RTVSPost2010PropOp38
 70
     1
102
RTVSPost2010Prop39
140
1.0
102
RTVSPost2010PropOp39
 70
     1
102
RTVSPost2010Prop40
 90
        0
102
RTVSPost2010PropOp40
 70
     1
102
RTVSPost2010Prop41ColorIndex
 90
       18
102
RTVSPost2010Prop41ColorRGB
 90
        0
102
RTVSPost2010PropOp41
 70
     1
102
RTVSPost2010Prop42
 90
       50
102
RTVSPost2010PropOp42
 70
     1
102
RTVSPost2010Prop43
 90
        3
102
RTVSPost2010PropOp43
 70
     1
102
RTVSPost2010Prop44ColorIndex
 90
        5
102
RTVSPost2010Prop44ColorRGB
 90
      255
102
RTVSPost2010PropOp44
 70
     1
102
RTVSPost2010Prop45
280
     0
102
RTVSPost2010PropOp45
 70
     1
102
RTVSPost2010Prop46
 90
       50
102
RTVSPost2010PropOp46
 70
     1
102
RTVSPost2010Prop47
 90
       50
102
RTVSPost2010PropOp47
 70
     1
102
RTVSPost2010Prop48
 90
       50
102
RTVSPost2010PropOp48
 70
     1
102
RTVSPost2010Prop49
280
     0
102
RTVSPost2010PropOp49
 70
     1
102
RTVSPost2010Prop50
 90
       50
102
RTVSPost2010PropOp50
 70
     1
102
RTVSPost2010Prop51ColorIndex
 90
      256
102
RTVSPost2010Prop51ColorRGB
 90
-16777216
102
RTVSPost2010PropOp51
 70
     0
102
RTVSPost2010Prop52
140
1.0
102
RTVSPost2010PropOp52
 70
     0
102
RTVSPost2010Prop53
 90
        2
102
RTVSPost2010PropOp53
 70
     1
102
RTVSPost2010Prop54
  1
strokes_ogs.tif
102
RTVSPost2010PropOp54
 70
     1
102
RTVSPost2010Prop55
280
     0
102
RTVSPost2010PropOp55
 70
     1
102
RTVSPost2010Prop56
140
1.0
102
RTVSPost2010PropOp56
 70
     1
102
RTVSPost2010Prop57
140
1.0
102
RTVSPost2010PropOp57
 70
     1
  0
XRECORD
  5
284
102
{ACAD_REACTORS
330
283
102
}
330
283
100
AcDbXrecord
280
     1
102
RTVSPost2010Prop28
280
     0
102
RTVSPost2010PropOp28
 70
     0
102
RTVSPost2010Prop29
280
     1
102
RTVSPost2010PropOp29
 70
     0
102
RTVSPost2010Prop30
280
     1
102
RTVSPost2010PropOp30
 70
     0
102
RTVSPost2010Prop31
280
     0
102
RTVSPost2010PropOp31
 70
     0
102
RTVSPost2010Prop32
280
     0
102
RTVSPost2010PropOp32
 70
     0
102
RTVSPost2010Prop33
280
     0
102
RTVSPost2010PropOp33
 70
     0
102
RTVSPost2010Prop34
280
     0
102
RTVSPost2010PropOp34
 70
     0
102
RTVSPost2010Prop35
280
     0
102
RTVSPost2010PropOp35
 70
     0
102
RTVSPost2010Prop36
280
     0
102
RTVSPost2010PropOp36
 70
     0
102
RTVSPost2010Prop37
 90
       50
102
RTVSPost2010PropOp37
 70
     0
102
RTVSPost2010Prop38
140
0.0
102
RTVSPost2010PropOp38
 70
     0
102
RTVSPost2010Prop39
140
1.0
102
RTVSPost2010PropOp39
 70
     0
102
RTVSPost2010Prop40
 90
        0
102
RTVSPost2010PropOp40
 70
     0
102
RTVSPost2010Prop41ColorIndex
 90
       18
102
RTVSPost2010Prop41ColorRGB
 90
        0
102
RTVSPost2010PropOp41
 70
     0
102
RTVSPost2010Prop42
 90
       50
102
RTVSPost2010PropOp42
 70
     0
102
RTVSPost2010Prop43
 90
        3
102
RTVSPost2010PropOp43
 70
     0
102
RTVSPost2010Prop44ColorIndex
 90
        5
102
RTVSPost2010Prop44ColorRGB
 90
      255
102
RTVSPost2010PropOp44
 70
     0
102
RTVSPost2010Prop45
280
     0
102
RTVSPost2010PropOp45
 70
     0
102
RTVSPost2010Prop46
 90
       50
102
RTVSPost2010PropOp46
 70
     0
102
RTVSPost2010Prop47
 90
       50
102
RTVSPost2010PropOp47
 70
     0
102
RTVSPost2010Prop48
 90
       50
102
RTVSPost2010PropOp48
 70
     0
102
RTVSPost2010Prop49
280
     0
102
RTVSPost2010PropOp49
 70
     0
102
RTVSPost2010Prop50
 90
       50
102
RTVSPost2010PropOp50
 70
     0
102
RTVSPost2010Prop51ColorIndex
 90
      256
102
RTVSPost2010Prop51ColorRGB
 90
-16777216
102
RTVSPost2010PropOp51
 70
     0
102
RTVSPost2010Prop52
140
1.0
102
RTVSPost2010PropOp52
 70
     0
102
RTVSPost2010Prop53
 90
        2
102
RTVSPost2010PropOp53
 70
     0
102
RTVSPost2010Prop54
  1
strokes_ogs.tif
102
RTVSPost2010PropOp54
 70
     0
102
RTVSPost2010Prop55
280
     0
102
RTVSPost2010PropOp55
 70
     0
102
RTVSPost2010Prop56
140
1.0
102
RTVSPost2010PropOp56
 70
     0
102
RTVSPost2010Prop57
140
1.0
102
RTVSPost2010PropOp57
 70
     0
  0
XRECORD
  5
27E
102
{ACAD_REACTORS
330
27D
102
}
330
27D
100
AcDbXrecord
280
     1
102
RTVSPost2010Prop28
280
     0
102
RTVSPost2010PropOp28
 70
     1
102
RTVSPost2010Prop29
280
     1
102
RTVSPost2010PropOp29
 70
     1
102
RTVSPost2010Prop30
280
     1
102
RTVSPost2010PropOp30
 70
     1
102
RTVSPost2010Prop31
280
     0
102
RTVSPost2010PropOp31
 70
     1
102
RTVSPost2010Prop32
280
     0
102
RTVSPost2010PropOp32
 70
     1
102
RTVSPost2010Prop33
280
     0
102
RTVSPost2010PropOp33
 70
     1
102
RTVSPost2010Prop34
280
     0
102
RTVSPost2010PropOp34
 70
     1
102
RTVSPost2010Prop35
280
     0
102
RTVSPost2010PropOp35
 70
     1
102
RTVSPost2010Prop36
280
     0
102
RTVSPost2010PropOp36
 70
     1
102
RTVSPost2010Prop37
 90
       50
102
RTVSPost2010PropOp37
 70
     1
102
RTVSPost2010Prop38
140
0.0
102
RTVSPost2010PropOp38
 70
     1
102
RTVSPost2010Prop39
140
1.0
102
RTVSPost2010PropOp39
 70
     1
102
RTVSPost2010Prop40
 90
        0
102
RTVSPost2010PropOp40
 70
     1
102
RTVSPost2010Prop41ColorIndex
 90
       18
102
RTVSPost2010Prop41ColorRGB
 90
        0
102
RTVSPost2010PropOp41
 70
     1
102
RTVSPost2010Prop42
 90
       50
102
RTVSPost2010PropOp42
 70
     1
102
RTVSPost2010Prop43
 90
        3
102
RTVSPost2010PropOp43
 70
     1
102
RTVSPost2010Prop44ColorIndex
 90
        5
102
RTVSPost2010Prop44ColorRGB
 90
      255
102
RTVSPost2010PropOp44
 70
     1
102
RTVSPost2010Prop45
280
     0
102
RTVSPost2010PropOp45
 70
     1
102
RTVSPost2010Prop46
 90
       50
102
RTVSPost2010PropOp46
 70
     1
102
RTVSPost2010Prop47
 90
       50
102
RTVSPost2010PropOp47
 70
     1
102
RTVSPost2010Prop48
 90
       50
102
RTVSPost2010PropOp48
 70
     1
102
RTVSPost2010Prop49
280
     0
102
RTVSPost2010PropOp49
 70
     1
102
RTVSPost2010Prop50
 90
       50
102
RTVSPost2010PropOp50
 70
     1
102
RTVSPost2010Prop51ColorIndex
 90
      256
102
RTVSPost2010Prop51ColorRGB
 90
-16777216
102
RTVSPost2010PropOp51
 70
     0
102
RTVSPost2010Prop52
140
1.0
102
RTVSPost2010PropOp52
 70
     0
102
RTVSPost2010Prop53
 90
        2
102
RTVSPost2010PropOp53
 70
     1
102
RTVSPost2010Prop54
  1
strokes_ogs.tif
102
RTVSPost2010PropOp54
 70
     1
102
RTVSPost2010Prop55
280
     0
102
RTVSPost2010PropOp55
 70
     1
102
RTVSPost2010Prop56
140
1.0
102
RTVSPost2010PropOp56
 70
     1
102
RTVSPost2010Prop57
140
1.0
102
RTVSPost2010PropOp57
 70
     1
  0
XRECORD
  5
286
102
{ACAD_REACTORS
330
285
102
}
330
285
100
AcDbXrecord
280
     1
102
RTVSPost2010Prop28
280
     0
102
RTVSPost2010PropOp28
 70
     0
102
RTVSPost2010Prop29
280
     1
102
RTVSPost2010PropOp29
 70
     0
102
RTVSPost2010Prop30
280
     1
102
RTVSPost2010PropOp30
 70
     0
102
RTVSPost2010Prop31
280
     0
102
RTVSPost2010PropOp31
 70
     0
102
RTVSPost2010Prop32
280
     0
102
RTVSPost2010PropOp32
 70
     0
102
RTVSPost2010Prop33
280
     0
102
RTVSPost2010PropOp33
 70
     0
102
RTVSPost2010Prop34
280
     0
102
RTVSPost2010PropOp34
 70
     0
102
RTVSPost2010Prop35
280
     0
102
RTVSPost2010PropOp35
 70
     0
102
RTVSPost2010Prop36
280
     0
102
RTVSPost2010PropOp36
 70
     0
102
RTVSPost2010Prop37
 90
       50
102
RTVSPost2010PropOp37
 70
     0
102
RTVSPost2010Prop38
140
0.0
102
RTVSPost2010PropOp38
 70
     0
102
RTVSPost2010Prop39
140
1.0
102
RTVSPost2010PropOp39
 70
     0
102
RTVSPost2010Prop40
 90
        0
102
RTVSPost2010PropOp40
 70
     0
102
RTVSPost2010Prop41ColorIndex
 90
       18
102
RTVSPost2010Prop41ColorRGB
 90
        0
102
RTVSPost2010PropOp41
 70
     0
102
RTVSPost2010Prop42
 90
       50
102
RTVSPost2010PropOp42
 70
     0
102
RTVSPost2010Prop43
 90
        3
102
RTVSPost2010PropOp43
 70
     0
102
RTVSPost2010Prop44ColorIndex
 90
        5
102
RTVSPost2010Prop44ColorRGB
 90
      255
102
RTVSPost2010PropOp44
 70
     0
102
RTVSPost2010Prop45
280
     0
102
RTVSPost2010PropOp45
 70
     0
102
RTVSPost2010Prop46
 90
       50
102
RTVSPost2010PropOp46
 70
     0
102
RTVSPost2010Prop47
 90
       50
102
RTVSPost2010PropOp47
 70
     0
102
RTVSPost2010Prop48
 90
       50
102
RTVSPost2010PropOp48
 70
     0
102
RTVSPost2010Prop49
280
     0
102
RTVSPost2010PropOp49
 70
     0
102
RTVSPost2010Prop50
 90
       50
102
RTVSPost2010PropOp50
 70
     0
102
RTVSPost2010Prop51ColorIndex
 90
      256
102
RTVSPost2010Prop51ColorRGB
 90
-16777216
102
RTVSPost2010PropOp51
 70
     0
102
RTVSPost2010Prop52
140
1.0
102
RTVSPost2010PropOp52
 70
     0
102
RTVSPost2010Prop53
 90
        2
102
RTVSPost2010PropOp53
 70
     0
102
RTVSPost2010Prop54
  1
strokes_ogs.tif
102
RTVSPost2010PropOp54
 70
     0
102
RTVSPost2010Prop55
280
     0
102
RTVSPost2010PropOp55
 70
     0
102
RTVSPost2010Prop56
140
1.0
102
RTVSPost2010PropOp56
 70
     0
102
RTVSPost2010Prop57
140
1.0
102
RTVSPost2010PropOp57
 70
     0
  0
XRECORD
  5
274
102
{ACAD_REACTORS
330
273
102
}
330
273
100
AcDbXrecord
280
     1
102
RTVSPost2010Prop28
280
     0
102
RTVSPost2010PropOp28
 70
     1
102
RTVSPost2010Prop29
280
     1
102
RTVSPost2010PropOp29
 70
     1
102
RTVSPost2010Prop30
280
     1
102
RTVSPost2010PropOp30
 70
     1
102
RTVSPost2010Prop31
280
     0
102
RTVSPost2010PropOp31
 70
     1
102
RTVSPost2010Prop32
280
     0
102
RTVSPost2010PropOp32
 70
     1
102
RTVSPost2010Prop33
280
     0
102
RTVSPost2010PropOp33
 70
     1
102
RTVSPost2010Prop34
280
     0
102
RTVSPost2010PropOp34
 70
     1
102
RTVSPost2010Prop35
280
     0
102
RTVSPost2010PropOp35
 70
     1
102
RTVSPost2010Prop36
280
     0
102
RTVSPost2010PropOp36
 70
     1
102
RTVSPost2010Prop37
 90
       50
102
RTVSPost2010PropOp37
 70
     1
102
RTVSPost2010Prop38
140
0.0
102
RTVSPost2010PropOp38
 70
     1
102
RTVSPost2010Prop39
140
1.0
102
RTVSPost2010PropOp39
 70
     1
102
RTVSPost2010Prop40
 90
        0
102
RTVSPost2010PropOp40
 70
     1
102
RTVSPost2010Prop41ColorIndex
 90
       18
102
RTVSPost2010Prop41ColorRGB
 90
        0
102
RTVSPost2010PropOp41
 70
     1
102
RTVSPost2010Prop42
 90
       50
102
RTVSPost2010PropOp42
 70
     1
102
RTVSPost2010Prop43
 90
        3
102
RTVSPost2010PropOp43
 70
     1
102
RTVSPost2010Prop44ColorIndex
 90
        5
102
RTVSPost2010Prop44ColorRGB
 90
      255
102
RTVSPost2010PropOp44
 70
     1
102
RTVSPost2010Prop45
280
     0
102
RTVSPost2010PropOp45
 70
     1
102
RTVSPost2010Prop46
 90
       50
102
RTVSPost2010PropOp46
 70
     1
102
RTVSPost2010Prop47
 90
       50
102
RTVSPost2010PropOp47
 70
     1
102
RTVSPost2010Prop48
 90
       50
102
RTVSPost2010PropOp48
 70
     1
102
RTVSPost2010Prop49
280
     0
102
RTVSPost2010PropOp49
 70
     1
102
RTVSPost2010Prop50
 90
       50
102
RTVSPost2010PropOp50
 70
     1
102
RTVSPost2010Prop51ColorIndex
 90
      256
102
RTVSPost2010Prop51ColorRGB
 90
-16777216
102
RTVSPost2010PropOp51
 70
     0
102
RTVSPost2010Prop52
140
1.0
102
RTVSPost2010PropOp52
 70
     0
102
RTVSPost2010Prop53
 90
        2
102
RTVSPost2010PropOp53
 70
     1
102
RTVSPost2010Prop54
  1
strokes_ogs.tif
102
RTVSPost2010PropOp54
 70
     1
102
RTVSPost2010Prop55
280
     0
102
RTVSPost2010PropOp55
 70
     1
102
RTVSPost2010Prop56
140
1.0
102
RTVSPost2010PropOp56
 70
     1
102
RTVSPost2010Prop57
140
1.0
102
RTVSPost2010PropOp57
 70
     1
  0
XRECORD
  5
292
102
{ACAD_REACTORS
330
291
102
}
330
291
100
AcDbXrecord
280
     1
102
RTVSPost2010Prop28
280
     0
102
RTVSPost2010PropOp28
 70
     1
102
RTVSPost2010Prop29
280
     1
102
RTVSPost2010PropOp29
 70
     1
102
RTVSPost2010Prop30
280
     1
102
RTVSPost2010PropOp30
 70
     1
102
RTVSPost2010Prop31
280
     0
102
RTVSPost2010PropOp31
 70
     1
102
RTVSPost2010Prop32
280
     0
102
RTVSPost2010PropOp32
 70
     1
102
RTVSPost2010Prop33
280
     0
102
RTVSPost2010PropOp33
 70
     1
102
RTVSPost2010Prop34
280
     0
102
RTVSPost2010PropOp34
 70
     1
102
RTVSPost2010Prop35
280
     0
102
RTVSPost2010PropOp35
 70
     1
102
RTVSPost2010Prop36
280
     0
102
RTVSPost2010PropOp36
 70
     1
102
RTVSPost2010Prop37
 90
       50
102
RTVSPost2010PropOp37
 70
     1
102
RTVSPost2010Prop38
140
0.0
102
RTVSPost2010PropOp38
 70
     1
102
RTVSPost2010Prop39
140
1.0
102
RTVSPost2010PropOp39
 70
     1
102
RTVSPost2010Prop40
 90
        0
102
RTVSPost2010PropOp40
 70
     1
102
RTVSPost2010Prop41ColorIndex
 90
       18
102
RTVSPost2010Prop41ColorRGB
 90
        0
102
RTVSPost2010PropOp41
 70
     1
102
RTVSPost2010Prop42
 90
       50
102
RTVSPost2010PropOp42
 70
     1
102
RTVSPost2010Prop43
 90
        3
102
RTVSPost2010PropOp43
 70
     1
102
RTVSPost2010Prop44ColorIndex
 90
        5
102
RTVSPost2010Prop44ColorRGB
 90
      255
102
RTVSPost2010PropOp44
 70
     1
102
RTVSPost2010Prop45
280
     0
102
RTVSPost2010PropOp45
 70
     1
102
RTVSPost2010Prop46
 90
       50
102
RTVSPost2010PropOp46
 70
     1
102
RTVSPost2010Prop47
 90
       50
102
RTVSPost2010PropOp47
 70
     1
102
RTVSPost2010Prop48
 90
       50
102
RTVSPost2010PropOp48
 70
     1
102
RTVSPost2010Prop49
280
     0
102
RTVSPost2010PropOp49
 70
     1
102
RTVSPost2010Prop50
 90
       50
102
RTVSPost2010PropOp50
 70
     1
102
RTVSPost2010Prop51ColorIndex
 90
      256
102
RTVSPost2010Prop51ColorRGB
 90
-16777216
102
RTVSPost2010PropOp51
 70
     0
102
RTVSPost2010Prop52
140
1.0
102
RTVSPost2010PropOp52
 70
     0
102
RTVSPost2010Prop53
 90
        2
102
RTVSPost2010PropOp53
 70
     1
102
RTVSPost2010Prop54
  1
strokes_ogs.tif
102
RTVSPost2010PropOp54
 70
     1
102
RTVSPost2010Prop55
280
     0
102
RTVSPost2010PropOp55
 70
     1
102
RTVSPost2010Prop56
140
1.0
102
RTVSPost2010PropOp56
 70
     1
102
RTVSPost2010Prop57
140
1.0
102
RTVSPost2010PropOp57
 70
     1
  0
XRECORD
  5
290
102
{ACAD_REACTORS
330
28F
102
}
330
28F
100
AcDbXrecord
280
     1
102
RTVSPost2010Prop28
280
     0
102
RTVSPost2010PropOp28
 70
     1
102
RTVSPost2010Prop29
280
     1
102
RTVSPost2010PropOp29
 70
     1
102
RTVSPost2010Prop30
280
     1
102
RTVSPost2010PropOp30
 70
     1
102
RTVSPost2010Prop31
280
     0
102
RTVSPost2010PropOp31
 70
     1
102
RTVSPost2010Prop32
280
     0
102
RTVSPost2010PropOp32
 70
     1
102
RTVSPost2010Prop33
280
     0
102
RTVSPost2010PropOp33
 70
     1
102
RTVSPost2010Prop34
280
     0
102
RTVSPost2010PropOp34
 70
     1
102
RTVSPost2010Prop35
280
     0
102
RTVSPost2010PropOp35
 70
     1
102
RTVSPost2010Prop36
280
     0
102
RTVSPost2010PropOp36
 70
     1
102
RTVSPost2010Prop37
 90
       50
102
RTVSPost2010PropOp37
 70
     1
102
RTVSPost2010Prop38
140
0.0
102
RTVSPost2010PropOp38
 70
     1
102
RTVSPost2010Prop39
140
1.0
102
RTVSPost2010PropOp39
 70
     1
102
RTVSPost2010Prop40
 90
        0
102
RTVSPost2010PropOp40
 70
     1
102
RTVSPost2010Prop41ColorIndex
 90
       18
102
RTVSPost2010Prop41ColorRGB
 90
        0
102
RTVSPost2010PropOp41
 70
     1
102
RTVSPost2010Prop42
 90
       50
102
RTVSPost2010PropOp42
 70
     1
102
RTVSPost2010Prop43
 90
        3
102
RTVSPost2010PropOp43
 70
     1
102
RTVSPost2010Prop44ColorIndex
 90
        5
102
RTVSPost2010Prop44ColorRGB
 90
      255
102
RTVSPost2010PropOp44
 70
     1
102
RTVSPost2010Prop45
280
     0
102
RTVSPost2010PropOp45
 70
     1
102
RTVSPost2010Prop46
 90
       50
102
RTVSPost2010PropOp46
 70
     1
102
RTVSPost2010Prop47
 90
       50
102
RTVSPost2010PropOp47
 70
     1
102
RTVSPost2010Prop48
 90
       50
102
RTVSPost2010PropOp48
 70
     1
102
RTVSPost2010Prop49
280
     0
102
RTVSPost2010PropOp49
 70
     1
102
RTVSPost2010Prop50
 90
       50
102
RTVSPost2010PropOp50
 70
     1
102
RTVSPost2010Prop51ColorIndex
 90
      256
102
RTVSPost2010Prop51ColorRGB
 90
-16777216
102
RTVSPost2010PropOp51
 70
     0
102
RTVSPost2010Prop52
140
1.0
102
RTVSPost2010PropOp52
 70
     0
102
RTVSPost2010Prop53
 90
        2
102
RTVSPost2010PropOp53
 70
     1
102
RTVSPost2010Prop54
  1
strokes_ogs.tif
102
RTVSPost2010PropOp54
 70
     1
102
RTVSPost2010Prop55
280
     0
102
RTVSPost2010PropOp55
 70
     1
102
RTVSPost2010Prop56
140
1.0
102
RTVSPost2010PropOp56
 70
     1
102
RTVSPost2010Prop57
140
1.0
102
RTVSPost2010PropOp57
 70
     1
  0
XRECORD
  5
28A
102
{ACAD_REACTORS
330
289
102
}
330
289
100
AcDbXrecord
280
     1
102
RTVSPost2010Prop28
280
     0
102
RTVSPost2010PropOp28
 70
     1
102
RTVSPost2010Prop29
280
     1
102
RTVSPost2010PropOp29
 70
     1
102
RTVSPost2010Prop30
280
     1
102
RTVSPost2010PropOp30
 70
     1
102
RTVSPost2010Prop31
280
     0
102
RTVSPost2010PropOp31
 70
     1
102
RTVSPost2010Prop32
280
     0
102
RTVSPost2010PropOp32
 70
     1
102
RTVSPost2010Prop33
280
     0
102
RTVSPost2010PropOp33
 70
     1
102
RTVSPost2010Prop34
280
     0
102
RTVSPost2010PropOp34
 70
     1
102
RTVSPost2010Prop35
280
     0
102
RTVSPost2010PropOp35
 70
     1
102
RTVSPost2010Prop36
280
     0
102
RTVSPost2010PropOp36
 70
     1
102
RTVSPost2010Prop37
 90
       50
102
RTVSPost2010PropOp37
 70
     1
102
RTVSPost2010Prop38
140
0.0
102
RTVSPost2010PropOp38
 70
     1
102
RTVSPost2010Prop39
140
1.0
102
RTVSPost2010PropOp39
 70
     1
102
RTVSPost2010Prop40
 90
        0
102
RTVSPost2010PropOp40
 70
     1
102
RTVSPost2010Prop41ColorIndex
 90
       18
102
RTVSPost2010Prop41ColorRGB
 90
        0
102
RTVSPost2010PropOp41
 70
     1
102
RTVSPost2010Prop42
 90
       50
102
RTVSPost2010PropOp42
 70
     1
102
RTVSPost2010Prop43
 90
        3
102
RTVSPost2010PropOp43
 70
     1
102
RTVSPost2010Prop44ColorIndex
 90
        5
102
RTVSPost2010Prop44ColorRGB
 90
      255
102
RTVSPost2010PropOp44
 70
     1
102
RTVSPost2010Prop45
280
     0
102
RTVSPost2010PropOp45
 70
     1
102
RTVSPost2010Prop46
 90
       50
102
RTVSPost2010PropOp46
 70
     1
102
RTVSPost2010Prop47
 90
       50
102
RTVSPost2010PropOp47
 70
     1
102
RTVSPost2010Prop48
 90
       50
102
RTVSPost2010PropOp48
 70
     1
102
RTVSPost2010Prop49
280
     0
102
RTVSPost2010PropOp49
 70
     1
102
RTVSPost2010Prop50
 90
       50
102
RTVSPost2010PropOp50
 70
     1
102
RTVSPost2010Prop51ColorIndex
 90
      256
102
RTVSPost2010Prop51ColorRGB
 90
-16777216
102
RTVSPost2010PropOp51
 70
     0
102
RTVSPost2010Prop52
140
1.0
102
RTVSPost2010PropOp52
 70
     0
102
RTVSPost2010Prop53
 90
        2
102
RTVSPost2010PropOp53
 70
     1
102
RTVSPost2010Prop54
  1
strokes_ogs.tif
102
RTVSPost2010PropOp54
 70
     1
102
RTVSPost2010Prop55
280
     0
102
RTVSPost2010PropOp55
 70
     1
102
RTVSPost2010Prop56
140
1.0
102
RTVSPost2010PropOp56
 70
     1
102
RTVSPost2010Prop57
140
1.0
102
RTVSPost2010PropOp57
 70
     1
  0
XRECORD
  5
28C
102
{ACAD_REACTORS
330
28B
102
}
330
28B
100
AcDbXrecord
280
     1
102
RTVSPost2010Prop28
280
     0
102
RTVSPost2010PropOp28
 70
     1
102
RTVSPost2010Prop29
280
     1
102
RTVSPost2010PropOp29
 70
     1
102
RTVSPost2010Prop30
280
     1
102
RTVSPost2010PropOp30
 70
     1
102
RTVSPost2010Prop31
280
     0
102
RTVSPost2010PropOp31
 70
     1
102
RTVSPost2010Prop32
280
     0
102
RTVSPost2010PropOp32
 70
     1
102
RTVSPost2010Prop33
280
     0
102
RTVSPost2010PropOp33
 70
     1
102
RTVSPost2010Prop34
280
     0
102
RTVSPost2010PropOp34
 70
     1
102
RTVSPost2010Prop35
280
     0
102
RTVSPost2010PropOp35
 70
     1
102
RTVSPost2010Prop36
280
     0
102
RTVSPost2010PropOp36
 70
     1
102
RTVSPost2010Prop37
 90
       50
102
RTVSPost2010PropOp37
 70
     1
102
RTVSPost2010Prop38
140
0.0
102
RTVSPost2010PropOp38
 70
     1
102
RTVSPost2010Prop39
140
1.0
102
RTVSPost2010PropOp39
 70
     1
102
RTVSPost2010Prop40
 90
        0
102
RTVSPost2010PropOp40
 70
     1
102
RTVSPost2010Prop41ColorIndex
 90
       18
102
RTVSPost2010Prop41ColorRGB
 90
        0
102
RTVSPost2010PropOp41
 70
     1
102
RTVSPost2010Prop42
 90
       50
102
RTVSPost2010PropOp42
 70
     1
102
RTVSPost2010Prop43
 90
        3
102
RTVSPost2010PropOp43
 70
     1
102
RTVSPost2010Prop44ColorIndex
 90
        5
102
RTVSPost2010Prop44ColorRGB
 90
      255
102
RTVSPost2010PropOp44
 70
     1
102
RTVSPost2010Prop45
280
     0
102
RTVSPost2010PropOp45
 70
     1
102
RTVSPost2010Prop46
 90
       50
102
RTVSPost2010PropOp46
 70
     1
102
RTVSPost2010Prop47
 90
       50
102
RTVSPost2010PropOp47
 70
     1
102
RTVSPost2010Prop48
 90
       50
102
RTVSPost2010PropOp48
 70
     1
102
RTVSPost2010Prop49
280
     0
102
RTVSPost2010PropOp49
 70
     1
102
RTVSPost2010Prop50
 90
       50
102
RTVSPost2010PropOp50
 70
     1
102
RTVSPost2010Prop51ColorIndex
 90
      256
102
RTVSPost2010Prop51ColorRGB
 90
-16777216
102
RTVSPost2010PropOp51
 70
     0
102
RTVSPost2010Prop52
140
1.0
102
RTVSPost2010PropOp52
 70
     0
102
RTVSPost2010Prop53
 90
        2
102
RTVSPost2010PropOp53
 70
     1
102
RTVSPost2010Prop54
  1
strokes_ogs.tif
102
RTVSPost2010PropOp54
 70
     1
102
RTVSPost2010Prop55
280
     0
102
RTVSPost2010PropOp55
 70
     1
102
RTVSPost2010Prop56
140
1.0
102
RTVSPost2010PropOp56
 70
     1
102
RTVSPost2010Prop57
140
1.0
102
RTVSPost2010PropOp57
 70
     1
  0
XRECORD
  5
27C
102
{ACAD_REACTORS
330
27B
102
}
330
27B
100
AcDbXrecord
280
     1
102
RTVSPost2010Prop28
280
     0
102
RTVSPost2010PropOp28
 70
     1
102
RTVSPost2010Prop29
280
     1
102
RTVSPost2010PropOp29
 70
     1
102
RTVSPost2010Prop30
280
     1
102
RTVSPost2010PropOp30
 70
     1
102
RTVSPost2010Prop31
280
     0
102
RTVSPost2010PropOp31
 70
     1
102
RTVSPost2010Prop32
280
     0
102
RTVSPost2010PropOp32
 70
     1
102
RTVSPost2010Prop33
280
     0
102
RTVSPost2010PropOp33
 70
     1
102
RTVSPost2010Prop34
280
     0
102
RTVSPost2010PropOp34
 70
     1
102
RTVSPost2010Prop35
280
     0
102
RTVSPost2010PropOp35
 70
     1
102
RTVSPost2010Prop36
280
     0
102
RTVSPost2010PropOp36
 70
     1
102
RTVSPost2010Prop37
 90
       50
102
RTVSPost2010PropOp37
 70
     1
102
RTVSPost2010Prop38
140
0.0
102
RTVSPost2010PropOp38
 70
     1
102
RTVSPost2010Prop39
140
1.0
102
RTVSPost2010PropOp39
 70
     1
102
RTVSPost2010Prop40
 90
        0
102
RTVSPost2010PropOp40
 70
     1
102
RTVSPost2010Prop41ColorIndex
 90
       18
102
RTVSPost2010Prop41ColorRGB
 90
        0
102
RTVSPost2010PropOp41
 70
     1
102
RTVSPost2010Prop42
 90
       50
102
RTVSPost2010PropOp42
 70
     1
102
RTVSPost2010Prop43
 90
        3
102
RTVSPost2010PropOp43
 70
     1
102
RTVSPost2010Prop44ColorIndex
 90
        5
102
RTVSPost2010Prop44ColorRGB
 90
      255
102
RTVSPost2010PropOp44
 70
     1
102
RTVSPost2010Prop45
280
     0
102
RTVSPost2010PropOp45
 70
     1
102
RTVSPost2010Prop46
 90
       50
102
RTVSPost2010PropOp46
 70
     1
102
RTVSPost2010Prop47
 90
       50
102
RTVSPost2010PropOp47
 70
     1
102
RTVSPost2010Prop48
 90
       50
102
RTVSPost2010PropOp48
 70
     1
102
RTVSPost2010Prop49
280
     0
102
RTVSPost2010PropOp49
 70
     1
102
RTVSPost2010Prop50
 90
       50
102
RTVSPost2010PropOp50
 70
     1
102
RTVSPost2010Prop51ColorIndex
 90
      256
102
RTVSPost2010Prop51ColorRGB
 90
-16777216
102
RTVSPost2010PropOp51
 70
     0
102
RTVSPost2010Prop52
140
1.0
102
RTVSPost2010PropOp52
 70
     0
102
RTVSPost2010Prop53
 90
        2
102
RTVSPost2010PropOp53
 70
     1
102
RTVSPost2010Prop54
  1
strokes_ogs.tif
102
RTVSPost2010PropOp54
 70
     1
102
RTVSPost2010Prop55
280
     0
102
RTVSPost2010PropOp55
 70
     1
102
RTVSPost2010Prop56
140
1.0
102
RTVSPost2010PropOp56
 70
     1
102
RTVSPost2010Prop57
140
1.0
102
RTVSPost2010PropOp57
 70
     1
  0
XRECORD
  5
26E
102
{ACAD_REACTORS
330
26D
102
}
330
26D
100
AcDbXrecord
280
     1
102
RTVSPost2010Prop28
280
     0
102
RTVSPost2010PropOp28
 70
     1
102
RTVSPost2010Prop29
280
     1
102
RTVSPost2010PropOp29
 70
     1
102
RTVSPost2010Prop30
280
     1
102
RTVSPost2010PropOp30
 70
     1
102
RTVSPost2010Prop31
280
     0
102
RTVSPost2010PropOp31
 70
     1
102
RTVSPost2010Prop32
280
     0
102
RTVSPost2010PropOp32
 70
     1
102
RTVSPost2010Prop33
280
     0
102
RTVSPost2010PropOp33
 70
     1
102
RTVSPost2010Prop34
280
     0
102
RTVSPost2010PropOp34
 70
     1
102
RTVSPost2010Prop35
280
     0
102
RTVSPost2010PropOp35
 70
     1
102
RTVSPost2010Prop36
280
     0
102
RTVSPost2010PropOp36
 70
     1
102
RTVSPost2010Prop37
 90
       50
102
RTVSPost2010PropOp37
 70
     1
102
RTVSPost2010Prop38
140
0.0
102
RTVSPost2010PropOp38
 70
     1
102
RTVSPost2010Prop39
140
1.0
102
RTVSPost2010PropOp39
 70
     1
102
RTVSPost2010Prop40
 90
        0
102
RTVSPost2010PropOp40
 70
     1
102
RTVSPost2010Prop41ColorIndex
 90
       18
102
RTVSPost2010Prop41ColorRGB
 90
        0
102
RTVSPost2010PropOp41
 70
     1
102
RTVSPost2010Prop42
 90
       50
102
RTVSPost2010PropOp42
 70
     1
102
RTVSPost2010Prop43
 90
        3
102
RTVSPost2010PropOp43
 70
     1
102
RTVSPost2010Prop44ColorIndex
 90
        5
102
RTVSPost2010Prop44ColorRGB
 90
      255
102
RTVSPost2010PropOp44
 70
     1
102
RTVSPost2010Prop45
280
     0
102
RTVSPost2010PropOp45
 70
     1
102
RTVSPost2010Prop46
 90
       50
102
RTVSPost2010PropOp46
 70
     1
102
RTVSPost2010Prop47
 90
       50
102
RTVSPost2010PropOp47
 70
     1
102
RTVSPost2010Prop48
 90
       50
102
RTVSPost2010PropOp48
 70
     1
102
RTVSPost2010Prop49
280
     0
102
RTVSPost2010PropOp49
 70
     1
102
RTVSPost2010Prop50
 90
       50
102
RTVSPost2010PropOp50
 70
     1
102
RTVSPost2010Prop51ColorIndex
 90
      256
102
RTVSPost2010Prop51ColorRGB
 90
-16777216
102
RTVSPost2010PropOp51
 70
     0
102
RTVSPost2010Prop52
140
1.0
102
RTVSPost2010PropOp52
 70
     0
102
RTVSPost2010Prop53
 90
        2
102
RTVSPost2010PropOp53
 70
     1
102
RTVSPost2010Prop54
  1
strokes_ogs.tif
102
RTVSPost2010PropOp54
 70
     1
102
RTVSPost2010Prop55
280
     0
102
RTVSPost2010PropOp55
 70
     1
102
RTVSPost2010Prop56
140
1.0
102
RTVSPost2010PropOp56
 70
     1
102
RTVSPost2010Prop57
140
1.0
102
RTVSPost2010PropOp57
 70
     1
  0
XRECORD
  5
28E
102
{ACAD_REACTORS
330
28D
102
}
330
28D
100
AcDbXrecord
280
     1
102
RTVSPost2010Prop28
280
     0
102
RTVSPost2010PropOp28
 70
     1
102
RTVSPost2010Prop29
280
     1
102
RTVSPost2010PropOp29
 70
     1
102
RTVSPost2010Prop30
280
     1
102
RTVSPost2010PropOp30
 70
     1
102
RTVSPost2010Prop31
280
     0
102
RTVSPost2010PropOp31
 70
     1
102
RTVSPost2010Prop32
280
     0
102
RTVSPost2010PropOp32
 70
     1
102
RTVSPost2010Prop33
280
     0
102
RTVSPost2010PropOp33
 70
     1
102
RTVSPost2010Prop34
280
     0
102
RTVSPost2010PropOp34
 70
     1
102
RTVSPost2010Prop35
280
     0
102
RTVSPost2010PropOp35
 70
     1
102
RTVSPost2010Prop36
280
     0
102
RTVSPost2010PropOp36
 70
     1
102
RTVSPost2010Prop37
 90
       50
102
RTVSPost2010PropOp37
 70
     1
102
RTVSPost2010Prop38
140
0.0
102
RTVSPost2010PropOp38
 70
     1
102
RTVSPost2010Prop39
140
1.0
102
RTVSPost2010PropOp39
 70
     1
102
RTVSPost2010Prop40
 90
        0
102
RTVSPost2010PropOp40
 70
     1
102
RTVSPost2010Prop41ColorIndex
 90
       18
102
RTVSPost2010Prop41ColorRGB
 90
        0
102
RTVSPost2010PropOp41
 70
     1
102
RTVSPost2010Prop42
 90
       50
102
RTVSPost2010PropOp42
 70
     1
102
RTVSPost2010Prop43
 90
        3
102
RTVSPost2010PropOp43
 70
     1
102
RTVSPost2010Prop44ColorIndex
 90
        5
102
RTVSPost2010Prop44ColorRGB
 90
      255
102
RTVSPost2010PropOp44
 70
     1
102
RTVSPost2010Prop45
280
     0
102
RTVSPost2010PropOp45
 70
     1
102
RTVSPost2010Prop46
 90
       50
102
RTVSPost2010PropOp46
 70
     1
102
RTVSPost2010Prop47
 90
       50
102
RTVSPost2010PropOp47
 70
     1
102
RTVSPost2010Prop48
 90
       50
102
RTVSPost2010PropOp48
 70
     1
102
RTVSPost2010Prop49
280
     0
102
RTVSPost2010PropOp49
 70
     1
102
RTVSPost2010Prop50
 90
       50
102
RTVSPost2010PropOp50
 70
     1
102
RTVSPost2010Prop51ColorIndex
 90
      256
102
RTVSPost2010Prop51ColorRGB
 90
-16777216
102
RTVSPost2010PropOp51
 70
     0
102
RTVSPost2010Prop52
140
1.0
102
RTVSPost2010PropOp52
 70
     0
102
RTVSPost2010Prop53
 90
        2
102
RTVSPost2010PropOp53
 70
     1
102
RTVSPost2010Prop54
  1
strokes_ogs.tif
102
RTVSPost2010PropOp54
 70
     1
102
RTVSPost2010Prop55
280
     0
102
RTVSPost2010PropOp55
 70
     1
102
RTVSPost2010Prop56
140
1.0
102
RTVSPost2010PropOp56
 70
     1
102
RTVSPost2010Prop57
140
1.0
102
RTVSPost2010PropOp57
 70
     1
  0
ENDSEC
  0
EOF
