  0
SECTION
  2
HEADER
  9
$ACADVER
  1
AC1024
  9
$ACADMAINTVER
 70
     6
  9
$DWGCODEPAGE
  3
ANSI_1252
  9
$LASTSAVEDBY
  1
m.muehle
  9
$INSBASE
 10
0.0
 20
0.0
 30
0.0
  9
$EXTMIN
 10
74.454882186803
 20
-8.184803767998
 30
0.0
  9
$EXTMAX
 10
1173.54511977638
 20
471.398420421642
 30
0.0
  9
$LIMMIN
 10
0.0
 20
0.0
  9
$LIMMAX
 10
420.0
 20
297.0
  9
$ORTHOMODE
 70
     0
  9
$REGENMODE
 70
     1
  9
$FILLMODE
 70
     1
  9
$QTEXTMODE
 70
     0
  9
$MIRRTEXT
 70
     1
  9
$LTSCALE
 40
5.0
  9
$ATTMODE
 70
     1
  9
$TEXTSIZE
 40
2.5
  9
$TRACEWID
 40
1.0
  9
$TEXTSTYLE
  7
Standard
  9
$CLAYER
  8
0
  9
$CELTYPE
  6
ByLayer
  9
$CECOLOR
 62
   256
  9
$CELTSCALE
 40
1.0
  9
$DISPSILH
 70
     0
  9
$DIMSCALE
 40
1.0
  9
$DIMASZ
 40
2.5
  9
$DIMEXO
 40
0.625
  9
$DIMDLI
 40
3.75
  9
$DIMRND
 40
0.0
  9
$DIMDLE
 40
0.0
  9
$DIMEXE
 40
1.25
  9
$DIMTP
 40
0.0
  9
$DIMTM
 40
0.0
  9
$DIMTXT
 40
2.5
  9
$DIMCEN
 40
2.5
  9
$DIMTSZ
 40
0.0
  9
$DIMTOL
 70
     0
  9
$DIMLIM
 70
     0
  9
$DIMTIH
 70
     0
  9
$DIMTOH
 70
     0
  9
$DIMSE1
 70
     0
  9
$DIMSE2
 70
     0
  9
$DIMTAD
 70
     1
  9
$DIMZIN
 70
     8
  9
$DIMBLK
  1

  9
$DIMASO
 70
     1
  9
$DIMSHO
 70
     1
  9
$DIMPOST
  1

  9
$DIMAPOST
  1

  9
$DIMALT
 70
     0
  9
$DIMALTD
 70
     3
  9
$DIMALTF
 40
0.03937007874
  9
$DIMLFAC
 40
1.0
  9
$DIMTOFL
 70
     1
  9
$DIMTVP
 40
0.0
  9
$DIMTIX
 70
     0
  9
$DIMSOXD
 70
     0
  9
$DIMSAH
 70
     0
  9
$DIMBLK1
  1

  9
$DIMBLK2
  1

  9
$DIMSTYLE
  2
ISO-25
  9
$DIMCLRD
 70
     0
  9
$DIMCLRE
 70
     0
  9
$DIMCLRT
 70
     0
  9
$DIMTFAC
 40
1.0
  9
$DIMGAP
 40
0.625
  9
$DIMJUST
 70
     0
  9
$DIMSD1
 70
     0
  9
$DIMSD2
 70
     0
  9
$DIMTOLJ
 70
     0
  9
$DIMTZIN
 70
     8
  9
$DIMALTZ
 70
     0
  9
$DIMALTTZ
 70
     0
  9
$DIMUPT
 70
     0
  9
$DIMDEC
 70
     2
  9
$DIMTDEC
 70
     2
  9
$DIMALTU
 70
     2
  9
$DIMALTTD
 70
     3
  9
$DIMTXSTY
  7
Standard
  9
$DIMAUNIT
 70
     0
  9
$DIMADEC
 70
     0
  9
$DIMALTRND
 40
0.0
  9
$DIMAZIN
 70
     0
  9
$DIMDSEP
 70
    44
  9
$DIMATFIT
 70
     3
  9
$DIMFRAC
 70
     0
  9
$DIMLDRBLK
  1

  9
$DIMLUNIT
 70
     2
  9
$DIMLWD
 70
    -2
  9
$DIMLWE
 70
    -2
  9
$DIMTMOVE
 70
     0
  9
$DIMFXL
 40
1.0
  9
$DIMFXLON
 70
     0
  9
$DIMJOGANG
 40
0.785398163397
  9
$DIMTFILL
 70
     0
  9
$DIMTFILLCLR
 70
     0
  9
$DIMARCSYM
 70
     0
  9
$DIMLTYPE
  6

  9
$DIMLTEX1
  6

  9
$DIMLTEX2
  6

  9
$DIMTXTDIRECTION
 70
     0
  9
$LUNITS
 70
     2
  9
$LUPREC
 70
     4
  9
$SKETCHINC
 40
1.0
  9
$FILLETRAD
 40
10.0
  9
$AUNITS
 70
     0
  9
$AUPREC
 70
     0
  9
$MENU
  1
.
  9
$ELEVATION
 40
0.0
  9
$PELEVATION
 40
0.0
  9
$THICKNESS
 40
0.0
  9
$LIMCHECK
 70
     0
  9
$CHAMFERA
 40
0.0
  9
$CHAMFERB
 40
0.0
  9
$CHAMFERC
 40
0.0
  9
$CHAMFERD
 40
0.0
  9
$SKPOLY
 70
     0
  9
$TDCREATE
 40
2458892.283574699
  9
$TDUCREATE
 40
2458892.241908032
  9
$TDUPDATE
 40
2458892.283574873
  9
$TDUUPDATE
 40
2458892.241908206
  9
$TDINDWG
 40
0.0000000116
  9
$TDUSRTIMER
 40
0.0000000116
  9
$USRTIMER
 70
     1
  9
$ANGBASE
 50
0.0
  9
$ANGDIR
 70
     0
  9
$PDMODE
 70
     2
  9
$PDSIZE
 40
1.0
  9
$PLINEWID
 40
0.0
  9
$SPLFRAME
 70
     0
  9
$SPLINETYPE
 70
     6
  9
$SPLINESEGS
 70
     8
  9
$HANDSEED
  5
16D
  9
$SURFTAB1
 70
     6
  9
$SURFTAB2
 70
     6
  9
$SURFTYPE
 70
     6
  9
$SURFU
 70
     6
  9
$SURFV
 70
     6
  9
$UCSBASE
  2

  9
$UCSNAME
  2

  9
$UCSORG
 10
0.0
 20
0.0
 30
0.0
  9
$UCSXDIR
 10
1.0
 20
0.0
 30
0.0
  9
$UCSYDIR
 10
0.0
 20
1.0
 30
0.0
  9
$UCSORTHOREF
  2

  9
$UCSORTHOVIEW
 70
     0
  9
$UCSORGTOP
 10
0.0
 20
0.0
 30
0.0
  9
$UCSORGBOTTOM
 10
0.0
 20
0.0
 30
0.0
  9
$UCSORGLEFT
 10
0.0
 20
0.0
 30
0.0
  9
$UCSORGRIGHT
 10
0.0
 20
0.0
 30
0.0
  9
$UCSORGFRONT
 10
0.0
 20
0.0
 30
0.0
  9
$UCSORGBACK
 10
0.0
 20
0.0
 30
0.0
  9
$PUCSBASE
  2

  9
$PUCSNAME
  2

  9
$PUCSORG
 10
0.0
 20
0.0
 30
0.0
  9
$PUCSXDIR
 10
1.0
 20
0.0
 30
0.0
  9
$PUCSYDIR
 10
0.0
 20
1.0
 30
0.0
  9
$PUCSORTHOREF
  2

  9
$PUCSORTHOVIEW
 70
     0
  9
$PUCSORGTOP
 10
0.0
 20
0.0
 30
0.0
  9
$PUCSORGBOTTOM
 10
0.0
 20
0.0
 30
0.0
  9
$PUCSORGLEFT
 10
0.0
 20
0.0
 30
0.0
  9
$PUCSORGRIGHT
 10
0.0
 20
0.0
 30
0.0
  9
$PUCSORGFRONT
 10
0.0
 20
0.0
 30
0.0
  9
$PUCSORGBACK
 10
0.0
 20
0.0
 30
0.0
  9
$USERI1
 70
     0
  9
$USERI2
 70
     0
  9
$USERI3
 70
     0
  9
$USERI4
 70
     0
  9
$USERI5
 70
     0
  9
$USERR1
 40
0.0
  9
$USERR2
 40
0.0
  9
$USERR3
 40
0.0
  9
$USERR4
 40
0.0
  9
$USERR5
 40
0.0
  9
$WORLDVIEW
 70
     1
  9
$SHADEDGE
 70
     3
  9
$SHADEDIF
 70
    70
  9
$TILEMODE
 70
     1
  9
$MAXACTVP
 70
    64
  9
$PINSBASE
 10
0.0
 20
0.0
 30
0.0
  9
$PLIMCHECK
 70
     0
  9
$PEXTMIN
 10
1.000000000000E+20
 20
1.000000000000E+20
 30
1.000000000000E+20
  9
$PEXTMAX
 10
-1.000000000000E+20
 20
-1.000000000000E+20
 30
-1.000000000000E+20
  9
$PLIMMIN
 10
0.0
 20
0.0
  9
$PLIMMAX
 10
420.0
 20
297.0
  9
$UNITMODE
 70
     0
  9
$VISRETAIN
 70
     1
  9
$PLINEGEN
 70
     0
  9
$PSLTSCALE
 70
     1
  9
$TREEDEPTH
 70
  3020
  9
$CMLSTYLE
  2
Standard
  9
$CMLJUST
 70
     0
  9
$CMLSCALE
 40
20.0
  9
$PROXYGRAPHICS
 70
     1
  9
$MEASUREMENT
 70
     1
  9
$CELWEIGHT
370
    -1
  9
$ENDCAPS
280
     0
  9
$JOINSTYLE
280
     0
  9
$LWDISPLAY
290
     0
  9
$INSUNITS
 70
     4
  9
$HYPERLINKBASE
  1

  9
$STYLESHEET
  1

  9
$XEDIT
290
     1
  9
$CEPSNTYPE
380
     0
  9
$PSTYLEMODE
290
     1
  9
$FINGERPRINTGUID
  2
{497de104-93d3-4ed0-b264-43e27f545065}
  9
$VERSIONGUID
  2
{FAEB1C32-E019-11D5-929B-00C0DF256EC4}
  9
$EXTNAMES
290
     1
  9
$PSVPSCALE
 40
0.0
  9
$OLESTARTUP
290
     0
  9
$SORTENTS
280
   127
  9
$INDEXCTL
280
     0
  9
$HIDETEXT
280
     1
  9
$XCLIPFRAME
280
     2
  9
$HALOGAP
280
     0
  9
$OBSCOLOR
 70
   257
  9
$OBSLTYPE
280
     0
  9
$INTERSECTIONDISPLAY
280
     0
  9
$INTERSECTIONCOLOR
 70
   257
  9
$DIMASSOC
280
     2
  9
$PROJECTNAME
  1

  9
$CAMERADISPLAY
290
     0
  9
$LENSLENGTH
 40
50.0
  9
$CAMERAHEIGHT
 40
0.0
  9
$STEPSPERSEC
 40
2.0
  9
$STEPSIZE
 40
6.0
  9
$3DDWFPREC
 40
2.0
  9
$PSOLWIDTH
 40
5.0
  9
$PSOLHEIGHT
 40
80.0
  9
$LOFTANG1
 40
1.570796326795
  9
$LOFTANG2
 40
1.570796326795
  9
$LOFTMAG1
 40
0.0
  9
$LOFTMAG2
 40
0.0
  9
$LOFTPARAM
 70
     7
  9
$LOFTNORMALS
280
     1
  9
$LATITUDE
 40
37.795
  9
$LONGITUDE
 40
-122.394
  9
$NORTHDIRECTION
 40
0.0
  9
$TIMEZONE
 70
 -8000
  9
$LIGHTGLYPHDISPLAY
280
     1
  9
$TILEMODELIGHTSYNCH
280
     1
  9
$CMATERIAL
347
44
  9
$SOLIDHIST
280
     0
  9
$SHOWHIST
280
     1
  9
$DWFFRAME
280
     2
  9
$DGNFRAME
280
     2
  9
$REALWORLDSCALE
290
     1
  9
$INTERFERECOLOR
 62
   256
  9
$CSHADOW
280
     0
  9
$SHADOWPLANELOCATION
 40
0.0
  0
ENDSEC
  0
SECTION
  2
CLASSES
  0
CLASS
  1
ACDBDICTIONARYWDFLT
  2
AcDbDictionaryWithDefault
  3
ObjectDBX Classes
 90
        0
 91
        3
280
     0
281
     0
  0
CLASS
  1
VISUALSTYLE
  2
AcDbVisualStyle
  3
ObjectDBX Classes
 90
     4095
 91
        3
280
     0
281
     0
  0
CLASS
  1
MATERIAL
  2
AcDbMaterial
  3
ObjectDBX Classes
 90
     1153
 91
        3
280
     0
281
     0
  0
CLASS
  1
SCALE
  2
AcDbScale
  3
ObjectDBX Classes
 90
     1153
 91
        3
280
     0
281
     0
  0
CLASS
  1
TABLESTYLE
  2
AcDbTableStyle
  3
ObjectDBX Classes
 90
     4095
 91
        3
280
     0
281
     0
  0
CLASS
  1
MLEADERSTYLE
  2
AcDbMLeaderStyle
  3
ACDB_MLEADERSTYLE_CLASS
 90
     4095
 91
        3
280
     0
281
     0
  0
CLASS
  1
SUN
  2
AcDbSun
  3
SCENEOE
 90
     1153
 91
        3
280
     0
281
     0
  0
CLASS
  1
DICTIONARYVAR
  2
AcDbDictionaryVar
  3
ObjectDBX Classes
 90
        0
 91
        3
280
     0
281
     0
  0
CLASS
  1
CELLSTYLEMAP
  2
AcDbCellStyleMap
  3
ObjectDBX Classes
 90
     1152
 91
        3
280
     0
281
     0
  0
CLASS
  1
WIPEOUTVARIABLES
  2
AcDbWipeoutVariables
  3
WipeOut|AutoCAD Express Tool|expresstools@autodesk.com
 90
        0
 91
        3
280
     0
281
     0
  0
ENDSEC
  0
SECTION
  2
TABLES
  0
TABLE
  2
VPORT
  5
8
330
0
100
AcDbSymbolTable
 70
     1
  0
VPORT
  5
29
330
8
100
AcDbSymbolTableRecord
100
AcDbViewportTableRecord
  2
*Active
 70
     0
 10
0.0
 20
0.0
 11
1.0
 21
1.0
 12
624.000000981591
 22
231.606808326822
 13
0.0
 23
0.0
 14
10.0
 24
10.0
 15
10.0
 25
10.0
 16
0.0
 26
0.0
 36
1.0
 17
0.0
 27
0.0
 37
0.0
 40
479.58322418964
 41
2.291761225482
 42
50.0
 43
0.0
 44
0.0
 50
0.0
 51
0.0
 71
     0
 72
   100
 73
     1
 74
     3
 75
     0
 76
     0
 77
     0
 78
     0
281
     0
 65
     1
110
0.0
120
0.0
130
0.0
111
1.0
121
0.0
131
0.0
112
0.0
122
1.0
132
0.0
 79
     0
146
0.0
348
2F
 60
     3
 61
     5
292
     1
282
     1
141
0.0
142
0.0
 63
   250
361
6D
  0
ENDTAB
  0
TABLE
  2
LTYPE
  5
5
330
0
100
AcDbSymbolTable
 70
     2
  0
LTYPE
  5
14
330
5
100
AcDbSymbolTableRecord
100
AcDbLinetypeTableRecord
  2
ByBlock
 70
     0
  3

 72
    65
 73
     0
 40
0.0
  0
LTYPE
  5
15
330
5
100
AcDbSymbolTableRecord
100
AcDbLinetypeTableRecord
  2
ByLayer
 70
     0
  3

 72
    65
 73
     0
 40
0.0
  0
LTYPE
  5
16
330
5
100
AcDbSymbolTableRecord
100
AcDbLinetypeTableRecord
  2
Continuous
 70
     0
  3
Solid line
 72
    65
 73
     0
 40
0.0
  0
LTYPE
  5
6E
330
5
100
AcDbSymbolTableRecord
100
AcDbLinetypeTableRecord
  2
AUSGEZOGEN
 70
     0
  3

 72
    65
 73
     0
 40
0.0
  0
ENDTAB
  0
TABLE
  2
LAYER
  5
2
330
0
100
AcDbSymbolTable
 70
     3
  0
LAYER
  5
10
330
2
100
AcDbSymbolTableRecord
100
AcDbLayerTableRecord
  2
0
 70
     0
 62
     7
  6
Continuous
370
    -3
390
F
347
46
  0
LAYER
  5
70
330
2
100
AcDbSymbolTableRecord
100
AcDbLayerTableRecord
  2
FREI LASSEN
 70
     0
 62
    56
420
  8421376
  6
Continuous
370
    -3
390
F
347
46
  0
LAYER
  5
71
330
2
100
AcDbSymbolTableRecord
100
AcDbLayerTableRecord
  2
Frei
 70
     0
 62
    18
420
        0
  6
Continuous
370
    -3
390
F
347
46
  0
ENDTAB
  0
TABLE
  2
STYLE
  5
3
330
0
100
AcDbSymbolTable
 70
     2
  0
STYLE
  5
11
330
3
100
AcDbSymbolTableRecord
100
AcDbTextStyleTableRecord
  2
Standard
 70
     0
 40
0.0
 41
1.0
 50
0.0
 71
     0
 42
2.5
  3
txt
  4

  0
STYLE
  5
6F
330
3
100
AcDbSymbolTableRecord
100
AcDbTextStyleTableRecord
  2
Toleranzfont
 70
     0
 40
0.0
 41
1.0
 50
0.0
 71
     0
 42
2.5
  3
IGES1003.SHX
  4

  0
ENDTAB
  0
TABLE
  2
VIEW
  5
6
330
0
100
AcDbSymbolTable
 70
     0
  0
ENDTAB
  0
TABLE
  2
UCS
  5
7
330
0
100
AcDbSymbolTable
 70
     0
  0
ENDTAB
  0
TABLE
  2
APPID
  5
9
330
0
100
AcDbSymbolTable
 70
     1
  0
APPID
  5
12
330
9
100
AcDbSymbolTableRecord
100
AcDbRegAppTableRecord
  2
ACAD
 70
     0
  0
ENDTAB
  0
TABLE
  2
DIMSTYLE
  5
A
330
0
100
AcDbSymbolTable
 70
     1
100
AcDbDimStyleTable
  0
DIMSTYLE
105
27
330
A
100
AcDbSymbolTableRecord
100
AcDbDimStyleTableRecord
  2
ISO-25
 70
     0
 41
2.5
 42
0.625
 43
3.75
 44
1.25
 73
     0
 74
     0
 77
     1
 78
     8
140
2.5
141
2.5
143
0.03937007874
147
0.625
171
     3
172
     1
178
     0
271
     2
272
     2
274
     3
278
    44
283
     0
284
     8
340
11
  0
ENDTAB
  0
TABLE
  2
BLOCK_RECORD
  5
1
330
0
100
AcDbSymbolTable
 70
     3
  0
BLOCK_RECORD
  5
1F
330
1
100
AcDbSymbolTableRecord
100
AcDbBlockTableRecord
  2
*Model_Space
340
22
 70
     0
280
     1
281
     0
  0
BLOCK_RECORD
  5
1B
330
1
100
AcDbSymbolTableRecord
100
AcDbBlockTableRecord
  2
*Paper_Space
340
1E
 70
     0
280
     1
281
     0
  0
BLOCK_RECORD
  5
23
330
1
100
AcDbSymbolTableRecord
100
AcDbBlockTableRecord
  2
*Paper_Space0
340
26
 70
     0
280
     1
281
     0
  0
BLOCK_RECORD
  5
105
330
1
100
AcDbSymbolTableRecord
100
AcDbBlockTableRecord
  2
Montagefuss Typ 200 G (25mm)_001_003_nNn00
340
0
102
{BLKREFS
331
113
102
}
 70
     0
280
     1
281
     0
  0
BLOCK_RECORD
  5
11B
330
1
100
AcDbSymbolTableRecord
100
AcDbBlockTableRecord
  2
Montagefuss Typ 200 G (25mm)_001_003_nNn01
340
0
102
{BLKREFS
331
129
102
}
 70
     0
280
     1
281
     0
  0
ENDTAB
  0
ENDSEC
  0
SECTION
  2
BLOCKS
  0
BLOCK
  5
20
330
1F
100
AcDbEntity
  8
0
100
AcDbBlockBegin
  2
*Model_Space
 70
     0
 10
0.0
 20
0.0
 30
0.0
  3
*Model_Space
  1

  0
ENDBLK
  5
21
330
1F
100
AcDbEntity
  8
0
100
AcDbBlockEnd
  0
BLOCK
  5
1C
330
1B
100
AcDbEntity
 67
     1
  8
0
100
AcDbBlockBegin
  2
*Paper_Space
 70
     0
 10
0.0
 20
0.0
 30
0.0
  3
*Paper_Space
  1

  0
ENDBLK
  5
1D
330
1B
100
AcDbEntity
 67
     1
  8
0
100
AcDbBlockEnd
  0
BLOCK
  5
24
330
23
100
AcDbEntity
  8
0
100
AcDbBlockBegin
  2
*Paper_Space0
 70
     0
 10
0.0
 20
0.0
 30
0.0
  3
*Paper_Space0
  1

  0
ENDBLK
  5
25
330
23
100
AcDbEntity
  8
0
100
AcDbBlockEnd
  0
BLOCK
  5
106
330
105
100
AcDbEntity
  8
0
100
AcDbBlockBegin
  2
Montagefuss Typ 200 G (25mm)_001_003_nNn00
 70
     0
 10
0.0
 20
0.0
 30
0.0
  3
Montagefuss Typ 200 G (25mm)_001_003_nNn00
  1

  0
LINE
  5
108
330
105
100
AcDbEntity
  8
FREI LASSEN
  6
AUSGEZOGEN
 62
    18
420
        0
370
    18
100
AcDbLine
 10
733.500000981591
 20
425.436392260802
 30
0.0
 11
751.75581493508
 21
425.436392260802
 31
0.0
  0
LINE
  5
109
330
105
100
AcDbEntity
  8
FREI LASSEN
  6
AUSGEZOGEN
 62
    18
420
        0
370
    18
100
AcDbLine
 10
752.337210283917
 20
403.343369004988
 30
0.0
 11
752.337210283917
 21
424.854996911965
 31
0.0
  0
LINE
  5
10A
330
105
100
AcDbEntity
  8
FREI LASSEN
  6
AUSGEZOGEN
 62
    18
420
        0
370
    18
100
AcDbLine
 10
754.081396330429
 20
401.599182958476
 30
0.0
 11
777.337210283917
 21
401.599182958476
 31
0.0
  0
LINE
  5
10B
330
105
100
AcDbEntity
  8
FREI LASSEN
  6
AUSGEZOGEN
 62
    18
420
        0
370
    18
100
AcDbLine
 10
754.081396330429
 20
402.761973656151
 30
0.0
 11
777.337210283917
 21
402.761973656151
 31
0.0
  0
LINE
  5
10C
330
105
100
AcDbEntity
  8
FREI LASSEN
  6
AUSGEZOGEN
 62
    18
420
        0
370
    18
100
AcDbLine
 10
753.500000981591
 20
403.343369004988
 30
0.0
 11
753.500000981591
 21
424.854996911965
 31
0.0
  0
LINE
  5
10D
330
105
100
AcDbEntity
  8
FREI LASSEN
  6
AUSGEZOGEN
 62
    18
420
        0
370
    18
100
AcDbLine
 10
733.500000981591
 20
426.599182958476
 30
0.0
 11
751.75581493508
 21
426.599182958476
 31
0.0
  0
LINE
  5
10E
330
105
100
AcDbEntity
  8
FREI LASSEN
  6
AUSGEZOGEN
 62
    18
420
        0
370
    18
100
AcDbLine
 10
733.500000981591
 20
425.436392260802
 30
0.0
 11
733.500000981591
 21
426.599182958476
 31
0.0
  0
ARC
  5
10F
330
105
100
AcDbEntity
  8
FREI LASSEN
  6
AUSGEZOGEN
 62
    18
420
        0
370
    18
100
AcDbCircle
 10
751.75581493508
 20
424.854996911965
 30
0.0
 40
0.5813953488372094
100
AcDbArc
 50
0.0
 51
90.0
  0
ARC
  5
110
330
105
100
AcDbEntity
  8
FREI LASSEN
  6
AUSGEZOGEN
 62
    18
420
        0
370
    18
100
AcDbCircle
 10
754.081396330429
 20
403.343369004988
 30
0.0
 40
0.5813953488372094
100
AcDbArc
 50
180.0
 51
270.0
  0
ARC
  5
111
330
105
100
AcDbEntity
  8
FREI LASSEN
  6
AUSGEZOGEN
 62
    18
420
        0
370
    18
100
AcDbCircle
 10
751.75581493508
 20
424.854996911965
 30
0.0
 40
1.744186046511628
100
AcDbArc
 50
0.0
 51
90.0
  0
ARC
  5
112
330
105
100
AcDbEntity
  8
FREI LASSEN
  6
AUSGEZOGEN
 62
    18
420
        0
370
    18
100
AcDbCircle
 10
754.081396330429
 20
403.343369004988
 30
0.0
 40
1.744186046511628
100
AcDbArc
 50
180.0
 51
270.0
  0
ENDBLK
  5
107
330
105
100
AcDbEntity
  8
0
100
AcDbBlockEnd
  0
BLOCK
  5
11C
330
11B
100
AcDbEntity
  8
0
100
AcDbBlockBegin
  2
Montagefuss Typ 200 G (25mm)_001_003_nNn01
 70
     0
 10
0.0
 20
0.0
 30
0.0
  3
Montagefuss Typ 200 G (25mm)_001_003_nNn01
  1

  0
LINE
  5
11E
330
11B
100
AcDbEntity
  8
FREI LASSEN
  6
AUSGEZOGEN
 62
    18
420
        0
370
    18
100
AcDbLine
 10
514.500000981591
 20
425.436392260801
 30
0.0
 11
496.244187028103
 21
425.4363922608
 31
0.0
  0
LINE
  5
11F
330
11B
100
AcDbEntity
  8
FREI LASSEN
  6
AUSGEZOGEN
 62
    18
420
        0
370
    18
100
AcDbLine
 10
495.662791679266
 20
403.343369004986
 30
0.0
 11
495.662791679266
 21
424.854996911963
 31
0.0
  0
LINE
  5
120
330
11B
100
AcDbEntity
  8
FREI LASSEN
  6
AUSGEZOGEN
 62
    18
420
        0
370
    18
100
AcDbLine
 10
493.918605632754
 20
401.599182958475
 30
0.0
 11
470.662791679266
 21
401.599182958474
 31
0.0
  0
LINE
  5
121
330
11B
100
AcDbEntity
  8
FREI LASSEN
  6
AUSGEZOGEN
 62
    18
420
        0
370
    18
100
AcDbLine
 10
493.918605632754
 20
402.761973656149
 30
0.0
 11
470.662791679266
 21
402.761973656149
 31
0.0
  0
LINE
  5
122
330
11B
100
AcDbEntity
  8
FREI LASSEN
  6
AUSGEZOGEN
 62
    18
420
        0
370
    18
100
AcDbLine
 10
494.500000981591
 20
403.343369004986
 30
0.0
 11
494.500000981591
 21
424.854996911963
 31
0.0
  0
LINE
  5
123
330
11B
100
AcDbEntity
  8
FREI LASSEN
  6
AUSGEZOGEN
 62
    18
420
        0
370
    18
100
AcDbLine
 10
514.500000981591
 20
426.599182958475
 30
0.0
 11
496.244187028103
 21
426.599182958475
 31
0.0
  0
LINE
  5
124
330
11B
100
AcDbEntity
  8
FREI LASSEN
  6
AUSGEZOGEN
 62
    18
420
        0
370
    18
100
AcDbLine
 10
514.500000981591
 20
425.436392260801
 30
0.0
 11
514.500000981591
 21
426.599182958475
 31
0.0
  0
ARC
  5
125
330
11B
100
AcDbEntity
  8
FREI LASSEN
  6
AUSGEZOGEN
 62
    18
420
        0
370
    18
100
AcDbCircle
 10
496.244187028103
 20
424.854996911963
 30
0.0
 40
0.5813953488372094
100
AcDbArc
 50
90.000000000001
 51
180.000000000001
  0
ARC
  5
126
330
11B
100
AcDbEntity
  8
FREI LASSEN
  6
AUSGEZOGEN
 62
    18
420
        0
370
    18
100
AcDbCircle
 10
493.918605632754
 20
403.343369004986
 30
0.0
 40
0.5813953488372094
100
AcDbArc
 50
270.000000000001
 51
0.000000000001
  0
ARC
  5
127
330
11B
100
AcDbEntity
  8
FREI LASSEN
  6
AUSGEZOGEN
 62
    18
420
        0
370
    18
100
AcDbCircle
 10
496.244187028103
 20
424.854996911963
 30
0.0
 40
1.744186046511628
100
AcDbArc
 50
90.000000000001
 51
180.000000000001
  0
ARC
  5
128
330
11B
100
AcDbEntity
  8
FREI LASSEN
  6
AUSGEZOGEN
 62
    18
420
        0
370
    18
100
AcDbCircle
 10
493.918605632754
 20
403.343369004986
 30
0.0
 40
1.744186046511628
100
AcDbArc
 50
270.000000000001
 51
0.000000000001
  0
ENDBLK
  5
11D
330
11B
100
AcDbEntity
  8
0
100
AcDbBlockEnd
  0
ENDSEC
  0
SECTION
  2
ENTITIES
  0
LINE
  5
72
330
1F
100
AcDbEntity
  8
Frei
  6
AUSGEZOGEN
 62
    18
420
        0
370
    18
100
AcDbLine
 10
585.9
 20
197.864433695167
 30
0.0
 11
585.9
 21
263.614433695167
 31
0.0
  0
ARC
  5
73
330
1F
100
AcDbEntity
  8
Frei
  6
AUSGEZOGEN
 62
    18
420
        0
370
    18
100
AcDbCircle
 10
572.65
 20
197.864433695167
 30
0.0
 40
13.25
100
AcDbArc
 50
187.043879490189
 51
0.0
  0
LINE
  5
74
330
1F
100
AcDbEntity
  8
Frei
  6
AUSGEZOGEN
 62
    18
420
        0
370
    18
100
AcDbLine
 10
664.1
 20
263.614433695167
 30
0.0
 11
583.9
 21
263.614433695167
 31
0.0
  0
LINE
  5
75
330
1F
100
AcDbEntity
  8
FREI LASSEN
  6
AUSGEZOGEN
 62
    56
420
  8421376
370
    18
100
AcDbLine
 10
559.500004004405
 20
196.239593605856
 30
0.0
 11
559.500004004405
 21
310.614433695167
 31
0.0
  0
LINE
  5
76
330
1F
100
AcDbEntity
  8
FREI LASSEN
  6
AUSGEZOGEN
 62
    56
420
  8421376
370
    18
100
AcDbLine
 10
561.515674532686
 20
196.255304617708
 30
0.0
 11
561.515674532686
 21
312.614433695167
 31
0.0
  0
ARC
  5
77
330
1F
100
AcDbEntity
  8
FREI LASSEN
  6
AUSGEZOGEN
 62
    56
420
  8421376
370
    18
100
AcDbCircle
 10
572.65
 20
197.864433695167
 30
0.0
 40
11.25
100
AcDbArc
 50
187.043879490189
 51
0.0
  0
LINE
  5
78
330
1F
100
AcDbEntity
  8
FREI LASSEN
  6
AUSGEZOGEN
 62
    56
420
  8421376
370
    18
100
AcDbLine
 10
583.9
 20
197.864433695167
 30
0.0
 11
583.9
 21
263.614433695167
 31
0.0
  0
LINE
  5
79
330
1F
100
AcDbEntity
  8
Frei
  6
AUSGEZOGEN
 62
    18
420
        0
370
    18
100
AcDbLine
 10
662.1
 20
197.864433695167
 30
0.0
 11
662.1
 21
263.614433695167
 31
0.0
  0
ARC
  5
7A
330
1F
100
AcDbEntity
  8
Frei
  6
AUSGEZOGEN
 62
    18
420
        0
370
    18
100
AcDbCircle
 10
675.35
 20
197.864433695167
 30
0.0
 40
13.25
100
AcDbArc
 50
180.0
 51
352.956120509811
  0
LINE
  5
7B
330
1F
100
AcDbEntity
  8
FREI LASSEN
  6
AUSGEZOGEN
 62
    56
420
  8421376
370
    18
100
AcDbLine
 10
688.499995995595
 20
196.239593605856
 30
0.0
 11
688.499995995595
 21
310.614433695167
 31
0.0
  0
LINE
  5
7C
330
1F
100
AcDbEntity
  8
FREI LASSEN
  6
AUSGEZOGEN
 62
    56
420
  8421376
370
    18
100
AcDbLine
 10
686.484325467314
 20
196.255304617708
 30
0.0
 11
686.484325467314
 21
312.614433695167
 31
0.0
  0
ARC
  5
7D
330
1F
100
AcDbEntity
  8
FREI LASSEN
  6
AUSGEZOGEN
 62
    56
420
  8421376
370
    18
100
AcDbCircle
 10
675.35
 20
197.864433695167
 30
0.0
 40
11.25
100
AcDbArc
 50
180.0
 51
351.776568600534
  0
LINE
  5
7E
330
1F
100
AcDbEntity
  8
FREI LASSEN
  6
AUSGEZOGEN
 62
    56
420
  8421376
370
    18
100
AcDbLine
 10
664.1
 20
197.864433695167
 30
0.0
 11
664.1
 21
263.614433695167
 31
0.0
  0
LINE
  5
7F
330
1F
100
AcDbEntity
  8
FREI LASSEN
  6
AUSGEZOGEN
 62
    56
420
  8421376
370
    18
100
AcDbLine
 10
662.1
 20
13.614433695167
 30
0.0
 11
585.95
 21
13.614433695167
 31
0.0
  0
LINE
  5
80
330
1F
100
AcDbEntity
  8
FREI LASSEN
  6
AUSGEZOGEN
 62
    18
420
        0
370
    18
100
AcDbLine
 10
662.05
 20
13.614433695167
 30
0.0
 11
662.05
 21
263.614433695167
 31
0.0
  0
LINE
  5
81
330
1F
100
AcDbEntity
  8
FREI LASSEN
  6
AUSGEZOGEN
 62
    18
420
        0
370
    18
100
AcDbLine
 10
585.95
 20
13.614433695167
 30
0.0
 11
585.95
 21
263.614433695167
 31
0.0
  0
LINE
  5
82
330
1F
100
AcDbEntity
  8
FREI LASSEN
  6
AUSGEZOGEN
 62
    18
420
        0
370
    18
100
AcDbLine
 10
587.95
 20
13.614433695167
 30
0.0
 11
587.95
 21
263.614433695167
 31
0.0
  0
LINE
  5
83
330
1F
100
AcDbEntity
  8
FREI LASSEN
  6
AUSGEZOGEN
 62
    18
420
        0
370
    18
100
AcDbLine
 10
660.05
 20
13.614433695167
 30
0.0
 11
660.05
 21
263.614433695167
 31
0.0
  0
HATCH
  5
84
330
1F
100
AcDbEntity
  8
FREI LASSEN
  6
AUSGEZOGEN
 62
    18
420
        0
370
    18
100
AcDbHatch
 10
0.0
 20
0.0
 30
0.0
210
0.0
220
0.0
230
1.0
  2
SOLID
 70
     1
 71
     0
 91
        1
 92
        2
 72
     0
 73
     1
 93
        4
 10
662.05
 20
263.6144336951675
 10
660.05
 20
263.6144336951675
 10
660.05
 20
13.61443369516746
 10
662.05
 20
13.61443369516746
 97
        0
 75
     0
 76
     1
 98
        0
  0
HATCH
  5
85
330
1F
100
AcDbEntity
  8
FREI LASSEN
  6
AUSGEZOGEN
 62
    18
420
        0
370
    18
100
AcDbHatch
 10
0.0
 20
0.0
 30
0.0
210
0.0
220
0.0
230
1.0
  2
SOLID
 70
     1
 71
     0
 91
        1
 92
        2
 72
     0
 73
     1
 93
        4
 10
585.95
 20
13.61443369516746
 10
587.95
 20
13.61443369516746
 10
587.95
 20
263.6144336951675
 10
585.95
 20
263.6144336951675
 97
        0
 75
     0
 76
     1
 98
        0
  0
LINE
  5
86
330
1F
100
AcDbEntity
  8
FREI LASSEN
  6
AUSGEZOGEN
 62
    18
420
        0
370
    18
100
AcDbLine
 10
688.499995995595
 20
310.614433695167
 30
0.0
 11
774.0
 21
310.614433695167
 31
0.0
  0
LINE
  5
87
330
1F
100
AcDbEntity
  8
Frei
  6
AUSGEZOGEN
 62
    18
420
        0
370
    18
100
AcDbLine
 10
575.000000981591
 20
197.135681024654
 30
0.0
 11
576.500000981591
 21
197.135681024654
 31
0.0
  0
LINE
  5
88
330
1F
100
AcDbEntity
  8
Frei
  6
AUSGEZOGEN
 62
    18
420
        0
370
    18
100
AcDbLine
 10
673.000000981591
 20
186.862615453918
 30
0.0
 11
673.000000981591
 21
274.135681024654
 31
0.0
  0
LINE
  5
89
330
1F
100
AcDbEntity
  8
Frei
  6
AUSGEZOGEN
 62
    18
420
        0
370
    18
100
AcDbLine
 10
575.000000981591
 20
186.862615873256
 30
0.0
 11
575.000000981591
 21
274.135681024654
 31
0.0
  0
LINE
  5
8A
330
1F
100
AcDbEntity
  8
Frei
  6
AUSGEZOGEN
 62
    18
420
        0
370
    18
100
AcDbLine
 10
576.500000981591
 20
187.293719791095
 30
0.0
 11
576.500000981591
 21
274.135681024654
 31
0.0
  0
LINE
  5
8B
330
1F
100
AcDbEntity
  8
Frei
  6
AUSGEZOGEN
 62
    18
420
        0
370
    18
100
AcDbLine
 10
671.500000981591
 20
187.293719076077
 30
0.0
 11
671.500000981591
 21
274.135681024654
 31
0.0
  0
ARC
  5
8C
330
1F
100
AcDbEntity
  8
Frei
  6
AUSGEZOGEN
 62
    18
420
        0
370
    18
100
AcDbCircle
 10
624.000000981591
 20
34.552347691328
 30
0.0
 40
262.0833333333258
100
AcDbArc
 50
82.80118319999
 51
97.19881680001
  0
ARC
  5
8D
330
1F
100
AcDbEntity
  8
Frei
  6
AUSGEZOGEN
 62
    18
420
        0
370
    18
100
AcDbCircle
 10
652.000000981591
 20
274.135681024654
 30
0.0
 40
21.0
100
AcDbArc
 50
0.0
 51
76.668212197734
  0
ARC
  5
8E
330
1F
100
AcDbEntity
  8
Frei
  6
AUSGEZOGEN
 62
    18
420
        0
370
    18
100
AcDbCircle
 10
596.000000981591
 20
274.135681024654
 30
0.0
 40
21.0
100
AcDbArc
 50
103.331787802266
 51
180.0
  0
ARC
  5
8F
330
1F
100
AcDbEntity
  8
Frei
  6
AUSGEZOGEN
 62
    18
420
        0
370
    18
100
AcDbCircle
 10
596.000000981591
 20
274.135681024654
 30
0.0
 40
19.5
100
AcDbArc
 50
103.563875353839
 51
180.0
  0
ARC
  5
90
330
1F
100
AcDbEntity
  8
Frei
  6
AUSGEZOGEN
 62
    18
420
        0
370
    18
100
AcDbCircle
 10
624.000000981591
 20
34.552347691328
 30
0.0
 40
260.5833333333258
100
AcDbArc
 50
82.819154747916
 51
97.180845252084
  0
ARC
  5
91
330
1F
100
AcDbEntity
  8
Frei
  6
AUSGEZOGEN
 62
    18
420
        0
370
    18
100
AcDbCircle
 10
652.000000981591
 20
274.135681024654
 30
0.0
 40
19.5
100
AcDbArc
 50
0.0
 51
76.436124646161
  0
LINE
  5
92
330
1F
100
AcDbEntity
  8
FREI LASSEN
  6
AUSGEZOGEN
 62
    56
420
  8421376
370
    18
100
AcDbLine
 10
671.500000981591
 20
197.135681024654
 30
0.0
 11
673.000000981591
 21
197.135681024654
 31
0.0
  0
HATCH
  5
93
330
1F
100
AcDbEntity
  8
FREI LASSEN
  6
AUSGEZOGEN
 62
    18
420
        0
370
    18
100
AcDbHatch
 10
0.0
 20
0.0
 30
0.0
210
0.0
220
0.0
230
1.0
  2
SOLID
 70
     1
 71
     0
 91
        1
 92
        2
 72
     1
 73
     1
 93
       12
 10
673.0000009815914
 20
197.1356810246539
 42
0.0
 10
673.0000009815914
 20
274.1356810246539
 42
0.3475922066794563
 10
656.8423830678822
 20
294.5697539356125
 42
0.062904301022177
 10
591.1576188953005
 20
294.5697539356125
 42
0.3475922066794563
 10
575.0000009815914
 20
274.1356810246539
 42
0.0
 10
575.0000009815914
 20
197.1356810246539
 42
0.0
 10
576.5000009815914
 20
197.1356810246539
 42
0.0
 10
576.5000009815914
 20
274.1356810246539
 42
-0.3464575811985146
 10
591.4266805907815
 20
293.0918077546324
 42
-0.062746850658747
 10
656.5733213724012
 20
293.0918077546322
 42
-0.3464575811985165
 10
671.5000009815914
 20
274.1356810246539
 42
0.0
 10
671.5000009815914
 20
197.1356810246539
 42
0.0
 97
        0
 75
     0
 76
     1
 98
        0
  0
LINE
  5
94
330
1F
100
AcDbEntity
  8
FREI LASSEN
  6
AUSGEZOGEN
 62
    18
420
        0
370
    18
100
AcDbLine
 10
613.7299783916
 20
304.209073512053
 30
0.0
 11
635.78036837079
 21
304.209073512053
 31
0.0
  0
LINE
  5
95
330
1F
100
AcDbEntity
  8
FREI LASSEN
  6
AUSGEZOGEN
 62
    18
420
        0
370
    18
100
AcDbLine
 10
606.825829018424
 20
294.569119128262
 30
0.0
 11
611.556713559426
 21
302.940917954476
 31
0.0
  0
LINE
  5
96
330
1F
100
AcDbEntity
  8
FREI LASSEN
  6
AUSGEZOGEN
 62
    18
420
        0
370
    18
100
AcDbLine
 10
637.9965462932
 20
302.861672240836
 30
0.0
 11
641.528284949043
 21
296.048873236628
 31
0.0
  0
LINE
  5
97
330
1F
100
AcDbEntity
  8
FREI LASSEN
  6
AUSGEZOGEN
 62
    18
420
        0
370
    18
100
AcDbLine
 10
604.538507574597
 20
295.595390963172
 30
0.0
 11
609.622326004306
 21
304.591743504363
 31
0.0
  0
LINE
  5
98
330
1F
100
AcDbEntity
  8
FREI LASSEN
  6
AUSGEZOGEN
 62
    18
420
        0
370
    18
100
AcDbLine
 10
613.244434057929
 20
306.705336100324
 30
0.0
 11
636.286264482998
 21
306.705336100324
 31
0.0
  0
LINE
  5
99
330
1F
100
AcDbEntity
  8
FREI LASSEN
  6
AUSGEZOGEN
 62
    18
420
        0
370
    18
100
AcDbLine
 10
639.979894353683
 20
304.459667314963
 30
0.0
 11
644.538382057796
 21
295.666247552744
 31
0.0
  0
ARC
  5
9A
330
1F
100
AcDbEntity
  8
FREI LASSEN
  6
AUSGEZOGEN
 62
    18
420
        0
370
    18
100
AcDbCircle
 10
613.7299783916
 20
301.712810923781
 30
0.0
 40
2.496262588271455
100
AcDbArc
 50
90.0
 51
150.529307205734
  0
ARC
  5
9B
330
1F
100
AcDbEntity
  8
FREI LASSEN
  6
AUSGEZOGEN
 62
    18
420
        0
370
    18
100
AcDbCircle
 10
635.78036837079
 20
301.712810923781
 30
0.0
 40
2.496262588271455
100
AcDbArc
 50
27.402115078282
 51
90.0
  0
ARC
  5
9C
330
1F
100
AcDbEntity
  8
FREI LASSEN
  6
AUSGEZOGEN
 62
    18
420
        0
370
    18
100
AcDbCircle
 10
613.244434057929
 20
302.544898453205
 30
0.0
 40
4.160437647119092
100
AcDbArc
 50
90.0
 51
150.529307205734
  0
ARC
  5
9D
330
1F
100
AcDbEntity
  8
FREI LASSEN
  6
AUSGEZOGEN
 62
    18
420
        0
370
    18
100
AcDbCircle
 10
636.286264482998
 20
302.544898453205
 30
0.0
 40
4.160437647119092
100
AcDbArc
 50
27.402115078282
 51
90.0
  0
LINE
  5
9E
330
1F
100
AcDbEntity
  8
FREI LASSEN
  6
AUSGEZOGEN
 62
    56
420
  8421376
370
    18
100
AcDbLine
 10
474.0
 20
310.614433695167
 30
0.0
 11
474.0
 21
312.614433695167
 31
0.0
  0
LINE
  5
9F
330
1F
100
AcDbEntity
  8
FREI LASSEN
  6
AUSGEZOGEN
 62
    56
420
  8421376
370
    18
100
AcDbLine
 10
774.0
 20
310.614433695167
 30
0.0
 11
774.0
 21
312.614433695167
 31
0.0
  0
LINE
  5
A0
330
1F
100
AcDbEntity
  8
FREI LASSEN
  6
AUSGEZOGEN
 62
    56
420
  8421376
370
    18
100
AcDbLine
 10
686.484325467314
 20
312.614433695167
 30
0.0
 11
774.0
 21
312.614433695167
 31
0.0
  0
LINE
  5
A1
330
1F
100
AcDbEntity
  8
FREI LASSEN
  6
AUSGEZOGEN
 62
    56
420
  8421376
370
    18
100
AcDbLine
 10
474.0
 20
310.614433695167
 30
0.0
 11
559.500004004405
 21
310.614433695167
 31
0.0
  0
LINE
  5
A2
330
1F
100
AcDbEntity
  8
FREI LASSEN
  6
AUSGEZOGEN
 62
    56
420
  8421376
370
    18
100
AcDbLine
 10
474.0
 20
312.614433695167
 30
0.0
 11
561.515674532686
 21
312.614433695167
 31
0.0
  0
HATCH
  5
A3
330
1F
100
AcDbEntity
  8
FREI LASSEN
  6
AUSGEZOGEN
 62
    18
420
        0
370
    18
100
AcDbHatch
 10
0.0
 20
0.0
 30
0.0
210
0.0
220
0.0
230
1.0
  2
SOLID
 70
     1
 71
     0
 91
        1
 92
        2
 72
     1
 73
     1
 93
       10
 10
474.0
 20
310.6144336951675
 42
0.0
 10
559.5000040044049
 20
310.6144336951675
 42
0.0
 10
559.5000040044049
 20
196.2395936058561
 42
0.9403452428484582
 10
585.9
 20
197.8644336951675
 42
0.0
 10
585.9
 20
263.6144336951675
 42
0.0
 10
583.9
 20
263.6144336951675
 42
0.0
 10
583.9
 20
197.8644336951675
 42
-0.9306940769005462
 10
561.515674532686
 20
196.2553046177084
 42
0.0
 10
561.515674532686
 20
312.6144336951675
 42
0.0
 10
474.0
 20
312.6144336951675
 42
0.0
 97
        0
 75
     0
 76
     1
 98
        0
  0
HATCH
  5
A4
330
1F
100
AcDbEntity
  8
FREI LASSEN
  6
AUSGEZOGEN
 62
    18
420
        0
370
    18
100
AcDbHatch
 10
0.0
 20
0.0
 30
0.0
210
0.0
220
0.0
230
1.0
  2
SOLID
 70
     1
 71
     0
 91
        1
 92
        2
 72
     1
 73
     1
 93
       10
 10
664.1
 20
197.8644336951675
 42
0.0
 10
664.1
 20
263.6144336951675
 42
0.0
 10
662.1
 20
263.6144336951675
 42
0.0
 10
662.1
 20
197.8644336951675
 42
0.9403452428484583
 10
688.4999959955951
 20
196.2395936058561
 42
0.0
 10
688.4999959955951
 20
310.6144336951675
 42
0.0
 10
774.0
 20
310.6144336951675
 42
0.0
 10
774.0
 20
312.6144336951675
 42
0.0
 10
686.484325467314
 20
312.6144336951675
 42
0.0
 10
686.484325467314
 20
196.2553046177084
 42
-0.9306940769005462
 97
        0
 75
     0
 76
     1
 98
        0
  0
LINE
  5
A5
330
1F
100
AcDbEntity
  8
FREI LASSEN
  6
AUSGEZOGEN
 62
    18
420
        0
370
    18
100
AcDbLine
 10
566.850000981591
 20
308.683955334329
 30
0.0
 11
681.150000981591
 21
308.683955334329
 31
0.0
  0
LINE
  5
A6
330
1F
100
AcDbEntity
  8
FREI LASSEN
  6
AUSGEZOGEN
 62
    18
420
        0
370
    18
100
AcDbLine
 10
566.850000981591
 20
308.683955334329
 30
0.0
 11
681.150000981591
 21
308.683955334329
 31
0.0
  0
LINE
  5
A7
330
1F
100
AcDbEntity
  8
FREI LASSEN
  6
AUSGEZOGEN
 62
    18
420
        0
370
    18
100
AcDbLine
 10
566.850000981591
 20
308.683955334329
 30
0.0
 11
566.850000981591
 21
408.683955334329
 31
0.0
  0
LINE
  5
A8
330
1F
100
AcDbEntity
  8
FREI LASSEN
  6
AUSGEZOGEN
 62
    18
420
        0
370
    18
100
AcDbLine
 10
681.150000981591
 20
308.683955334329
 30
0.0
 11
681.150000981591
 21
408.683955334329
 31
0.0
  0
LINE
  5
A9
330
1F
100
AcDbEntity
  8
FREI LASSEN
  6
AUSGEZOGEN
 62
    18
420
        0
370
    18
100
AcDbLine
 10
680.150000981591
 20
308.683955334329
 30
0.0
 11
680.150000981591
 21
409.363894110476
 31
0.0
  0
LINE
  5
AA
330
1F
100
AcDbEntity
  8
FREI LASSEN
  6
AUSGEZOGEN
 62
    18
420
        0
370
    18
100
AcDbLine
 10
567.850000981591
 20
308.683955334329
 30
0.0
 11
567.850000981591
 21
409.363894110476
 31
0.0
  0
LINE
  5
AB
330
1F
100
AcDbEntity
  8
FREI LASSEN
  6
AUSGEZOGEN
 62
    18
420
        0
370
    18
100
AcDbLine
 10
501.500000981591
 20
449.599182958476
 30
0.0
 11
746.500000981591
 21
449.599182958476
 31
0.0
  0
LINE
  5
AC
330
1F
100
AcDbEntity
  8
FREI LASSEN
  6
AUSGEZOGEN
 62
    18
420
        0
370
    18
100
AcDbLine
 10
746.500000981591
 20
430.099182958476
 30
0.0
 11
746.500000981591
 21
449.599182958476
 31
0.0
  0
LINE
  5
AD
330
1F
100
AcDbEntity
  8
FREI LASSEN
  6
AUSGEZOGEN
 62
    18
420
        0
370
    18
100
AcDbLine
 10
501.500000981591
 20
430.099182958476
 30
0.0
 11
501.500000981591
 21
449.599182958476
 31
0.0
  0
LINE
  5
AE
330
1F
100
AcDbEntity
  8
FREI LASSEN
  6
AUSGEZOGEN
 62
    18
420
        0
370
    18
100
AcDbLine
 10
733.500000981591
 20
426.599182958476
 30
0.0
 11
743.000000981591
 21
426.599182958476
 31
0.0
  0
LINE
  5
AF
330
1F
100
AcDbEntity
  8
FREI LASSEN
  6
AUSGEZOGEN
 62
    18
420
        0
370
    18
100
AcDbLine
 10
505.000000981591
 20
426.599182958476
 30
0.0
 11
514.500000981591
 21
426.599182958476
 31
0.0
  0
LINE
  5
B0
330
1F
100
AcDbEntity
  8
FREI LASSEN
  6
AUSGEZOGEN
 62
    18
420
        0
370
    18
100
AcDbLine
 10
733.500000981591
 20
426.599182958476
 30
0.0
 11
733.500000981591
 21
428.599182958476
 31
0.0
  0
LINE
  5
B1
330
1F
100
AcDbEntity
  8
FREI LASSEN
  6
AUSGEZOGEN
 62
    18
420
        0
370
    18
100
AcDbLine
 10
514.500000981591
 20
426.599182958476
 30
0.0
 11
514.500000981591
 21
428.599182958476
 31
0.0
  0
LINE
  5
B2
330
1F
100
AcDbEntity
  8
FREI LASSEN
  6
AUSGEZOGEN
 62
    18
420
        0
370
    18
100
AcDbLine
 10
514.500000981591
 20
426.599182958476
 30
0.0
 11
566.850000981591
 21
407.599182958476
 31
0.0
  0
LINE
  5
B3
330
1F
100
AcDbEntity
  8
FREI LASSEN
  6
AUSGEZOGEN
 62
    18
420
        0
370
    18
100
AcDbLine
 10
681.150000981591
 20
407.599182958476
 30
0.0
 11
733.500000981591
 21
426.599182958476
 31
0.0
  0
LINE
  5
B4
330
1F
100
AcDbEntity
  8
FREI LASSEN
  6
AUSGEZOGEN
 62
    18
420
        0
370
    18
100
AcDbLine
 10
505.500000981591
 20
428.599182958476
 30
0.0
 11
742.500000981591
 21
428.599182958476
 31
0.0
  0
LINE
  5
B5
330
1F
100
AcDbEntity
  8
FREI LASSEN
  6
AUSGEZOGEN
 62
    18
420
        0
370
    18
100
AcDbLine
 10
744.500000981591
 20
430.599182958476
 30
0.0
 11
744.500000981591
 21
449.599182958476
 31
0.0
  0
LINE
  5
B6
330
1F
100
AcDbEntity
  8
FREI LASSEN
  6
AUSGEZOGEN
 62
    18
420
        0
370
    18
100
AcDbLine
 10
503.500000981591
 20
430.599182958476
 30
0.0
 11
503.500000981591
 21
449.599182958476
 31
0.0
  0
ARC
  5
B7
330
1F
100
AcDbEntity
  8
FREI LASSEN
  6
AUSGEZOGEN
 62
    18
420
        0
370
    18
100
AcDbCircle
 10
505.500000981591
 20
430.599182958476
 30
0.0
 40
2.000000000000001
100
AcDbArc
 50
180.0
 51
270.0
  0
ARC
  5
B8
330
1F
100
AcDbEntity
  8
FREI LASSEN
  6
AUSGEZOGEN
 62
    18
420
        0
370
    18
100
AcDbCircle
 10
742.500000981591
 20
430.599182958476
 30
0.0
 40
2.000000000000001
100
AcDbArc
 50
270.0
 51
0.0
  0
ARC
  5
B9
330
1F
100
AcDbEntity
  8
FREI LASSEN
  6
AUSGEZOGEN
 62
    18
420
        0
370
    18
100
AcDbCircle
 10
505.000000981591
 20
430.099182958476
 30
0.0
 40
3.500000000000002
100
AcDbArc
 50
180.0
 51
270.0
  0
ARC
  5
BA
330
1F
100
AcDbEntity
  8
FREI LASSEN
  6
AUSGEZOGEN
 62
    18
420
        0
370
    18
100
AcDbCircle
 10
743.000000981591
 20
430.099182958476
 30
0.0
 40
3.500000000000002
100
AcDbArc
 50
270.0
 51
0.0
  0
LINE
  5
BB
330
1F
100
AcDbEntity
  8
FREI LASSEN
  6
AUSGEZOGEN
 62
    18
420
        0
370
    18
100
AcDbLine
 10
503.990381991326
 20
449.059763847768
 30
0.0
 11
744.009619971857
 21
449.059763847768
 31
0.0
  0
LINE
  5
BC
330
1F
100
AcDbEntity
  8
FREI LASSEN
  6
AUSGEZOGEN
 62
    18
420
        0
370
    18
100
AcDbLine
 10
744.009619971857
 20
429.287294813767
 30
0.0
 11
744.009619971857
 21
449.059763847768
 31
0.0
  0
LINE
  5
BD
330
1F
100
AcDbEntity
  8
FREI LASSEN
  6
AUSGEZOGEN
 62
    18
420
        0
370
    18
100
AcDbLine
 10
503.990381991326
 20
429.287294813767
 30
0.0
 11
503.990381991326
 21
449.059763847768
 31
0.0
  0
LINE
  5
BE
330
1F
100
AcDbEntity
  8
FREI LASSEN
  6
AUSGEZOGEN
 62
    18
420
        0
370
    18
100
AcDbLine
 10
741.557714923185
 20
428.599182958476
 30
0.0
 11
741.557714923185
 21
449.059763847768
 31
0.0
  0
LINE
  5
BF
330
1F
100
AcDbEntity
  8
FREI LASSEN
  6
AUSGEZOGEN
 62
    18
420
        0
370
    18
100
AcDbLine
 10
506.442287039998
 20
428.599182958476
 30
0.0
 11
506.442287039998
 21
449.059763847768
 31
0.0
  0
LINE
  5
C0
330
1F
100
AcDbEntity
  8
FREI LASSEN
  6
AUSGEZOGEN
 62
    18
420
        0
370
    18
100
AcDbLine
 10
631.355716127608
 20
438.27138163361
 30
0.0
 11
631.355716127608
 21
449.059763847768
 31
0.0
  0
LINE
  5
C1
330
1F
100
AcDbEntity
  8
FREI LASSEN
  6
AUSGEZOGEN
 62
    18
420
        0
370
    18
100
AcDbLine
 10
616.644285835575
 20
438.27138163361
 30
0.0
 11
616.644285835575
 21
449.059763847768
 31
0.0
  0
LINE
  5
C2
330
1F
100
AcDbEntity
  8
FREI LASSEN
  6
AUSGEZOGEN
 62
    18
420
        0
370
    18
100
AcDbLine
 10
633.80762117628
 20
438.27138163361
 30
0.0
 11
633.80762117628
 21
449.059763847768
 31
0.0
  0
LINE
  5
C3
330
1F
100
AcDbEntity
  8
FREI LASSEN
  6
AUSGEZOGEN
 62
    18
420
        0
370
    18
100
AcDbLine
 10
614.192380786902
 20
438.27138163361
 30
0.0
 11
614.192380786902
 21
449.059763847768
 31
0.0
  0
LINE
  5
C4
330
1F
100
AcDbEntity
  8
FREI LASSEN
  6
AUSGEZOGEN
 62
    18
420
        0
370
    18
100
AcDbLine
 10
594.577140397524
 20
438.27138163361
 30
0.0
 11
594.577140397524
 21
449.059763847768
 31
0.0
  0
LINE
  5
C5
330
1F
100
AcDbEntity
  8
FREI LASSEN
  6
AUSGEZOGEN
 62
    18
420
        0
370
    18
100
AcDbLine
 10
574.961900008146
 20
438.27138163361
 30
0.0
 11
574.961900008146
 21
449.059763847768
 31
0.0
  0
LINE
  5
C6
330
1F
100
AcDbEntity
  8
FREI LASSEN
  6
AUSGEZOGEN
 62
    18
420
        0
370
    18
100
AcDbLine
 10
555.346659618768
 20
438.27138163361
 30
0.0
 11
555.346659618768
 21
449.059763847768
 31
0.0
  0
LINE
  5
C7
330
1F
100
AcDbEntity
  8
FREI LASSEN
  6
AUSGEZOGEN
 62
    18
420
        0
370
    18
100
AcDbLine
 10
535.73141922939
 20
438.27138163361
 30
0.0
 11
535.73141922939
 21
449.059763847768
 31
0.0
  0
LINE
  5
C8
330
1F
100
AcDbEntity
  8
FREI LASSEN
  6
AUSGEZOGEN
 62
    18
420
        0
370
    18
100
AcDbLine
 10
516.116178840012
 20
438.27138163361
 30
0.0
 11
516.116178840012
 21
449.059763847768
 31
0.0
  0
LINE
  5
C9
330
1F
100
AcDbEntity
  8
FREI LASSEN
  6
AUSGEZOGEN
 62
    18
420
        0
370
    18
100
AcDbLine
 10
653.422861565659
 20
438.27138163361
 30
0.0
 11
653.422861565659
 21
449.059763847768
 31
0.0
  0
LINE
  5
CA
330
1F
100
AcDbEntity
  8
FREI LASSEN
  6
AUSGEZOGEN
 62
    18
420
        0
370
    18
100
AcDbLine
 10
673.038101955037
 20
438.27138163361
 30
0.0
 11
673.038101955037
 21
449.059763847768
 31
0.0
  0
LINE
  5
CB
330
1F
100
AcDbEntity
  8
FREI LASSEN
  6
AUSGEZOGEN
 62
    18
420
        0
370
    18
100
AcDbLine
 10
692.653342344415
 20
438.27138163361
 30
0.0
 11
692.653342344415
 21
449.059763847768
 31
0.0
  0
LINE
  5
CC
330
1F
100
AcDbEntity
  8
FREI LASSEN
  6
AUSGEZOGEN
 62
    18
420
        0
370
    18
100
AcDbLine
 10
712.268582733793
 20
438.27138163361
 30
0.0
 11
712.268582733793
 21
449.059763847768
 31
0.0
  0
LINE
  5
CD
330
1F
100
AcDbEntity
  8
FREI LASSEN
  6
AUSGEZOGEN
 62
    18
420
        0
370
    18
100
AcDbLine
 10
731.883823123171
 20
438.27138163361
 30
0.0
 11
731.883823123171
 21
449.059763847768
 31
0.0
  0
LINE
  5
CE
330
1F
100
AcDbEntity
  8
FREI LASSEN
  6
AUSGEZOGEN
 62
    18
420
        0
370
    18
100
AcDbLine
 10
729.431918074499
 20
438.27138163361
 30
0.0
 11
729.431918074499
 21
449.059763847768
 31
0.0
  0
LINE
  5
CF
330
1F
100
AcDbEntity
  8
FREI LASSEN
  6
AUSGEZOGEN
 62
    18
420
        0
370
    18
100
AcDbLine
 10
709.816677685121
 20
438.27138163361
 30
0.0
 11
709.816677685121
 21
449.059763847768
 31
0.0
  0
LINE
  5
D0
330
1F
100
AcDbEntity
  8
FREI LASSEN
  6
AUSGEZOGEN
 62
    18
420
        0
370
    18
100
AcDbLine
 10
690.201437295743
 20
438.27138163361
 30
0.0
 11
690.201437295743
 21
449.059763847768
 31
0.0
  0
LINE
  5
D1
330
1F
100
AcDbEntity
  8
FREI LASSEN
  6
AUSGEZOGEN
 62
    18
420
        0
370
    18
100
AcDbLine
 10
670.586196906364
 20
438.27138163361
 30
0.0
 11
670.586196906364
 21
449.059763847768
 31
0.0
  0
LINE
  5
D2
330
1F
100
AcDbEntity
  8
FREI LASSEN
  6
AUSGEZOGEN
 62
    18
420
        0
370
    18
100
AcDbLine
 10
650.970956516986
 20
438.27138163361
 30
0.0
 11
650.970956516986
 21
449.059763847768
 31
0.0
  0
LINE
  5
D3
330
1F
100
AcDbEntity
  8
FREI LASSEN
  6
AUSGEZOGEN
 62
    18
420
        0
370
    18
100
AcDbLine
 10
597.029045446196
 20
438.27138163361
 30
0.0
 11
597.029045446196
 21
449.059763847768
 31
0.0
  0
LINE
  5
D4
330
1F
100
AcDbEntity
  8
FREI LASSEN
  6
AUSGEZOGEN
 62
    18
420
        0
370
    18
100
AcDbLine
 10
577.413805056818
 20
438.27138163361
 30
0.0
 11
577.413805056818
 21
449.059763847768
 31
0.0
  0
LINE
  5
D5
330
1F
100
AcDbEntity
  8
FREI LASSEN
  6
AUSGEZOGEN
 62
    18
420
        0
370
    18
100
AcDbLine
 10
557.79856466744
 20
438.27138163361
 30
0.0
 11
557.79856466744
 21
449.059763847768
 31
0.0
  0
LINE
  5
D6
330
1F
100
AcDbEntity
  8
FREI LASSEN
  6
AUSGEZOGEN
 62
    18
420
        0
370
    18
100
AcDbLine
 10
538.183324278062
 20
438.27138163361
 30
0.0
 11
538.183324278062
 21
449.059763847768
 31
0.0
  0
LINE
  5
D7
330
1F
100
AcDbEntity
  8
FREI LASSEN
  6
AUSGEZOGEN
 62
    18
420
        0
370
    18
100
AcDbLine
 10
518.568083888684
 20
438.27138163361
 30
0.0
 11
518.568083888684
 21
449.059763847768
 31
0.0
  0
LINE
  5
D8
330
1F
100
AcDbEntity
  8
FREI LASSEN
  6
AUSGEZOGEN
 62
    18
420
        0
370
    18
100
AcDbLine
 10
730.412680093968
 20
437.290619614141
 30
0.0
 11
730.903061103702
 21
437.290619614141
 31
0.0
  0
LINE
  5
D9
330
1F
100
AcDbEntity
  8
FREI LASSEN
  6
AUSGEZOGEN
 62
    18
420
        0
370
    18
100
AcDbLine
 10
710.79743970459
 20
437.290619614141
 30
0.0
 11
711.287820714324
 21
437.290619614141
 31
0.0
  0
LINE
  5
DA
330
1F
100
AcDbEntity
  8
FREI LASSEN
  6
AUSGEZOGEN
 62
    18
420
        0
370
    18
100
AcDbLine
 10
691.182199315212
 20
437.290619614141
 30
0.0
 11
691.672580324946
 21
437.290619614141
 31
0.0
  0
LINE
  5
DB
330
1F
100
AcDbEntity
  8
FREI LASSEN
  6
AUSGEZOGEN
 62
    18
420
        0
370
    18
100
AcDbLine
 10
671.566958925833
 20
437.290619614141
 30
0.0
 11
672.057339935568
 21
437.290619614141
 31
0.0
  0
LINE
  5
DC
330
1F
100
AcDbEntity
  8
FREI LASSEN
  6
AUSGEZOGEN
 62
    18
420
        0
370
    18
100
AcDbLine
 10
651.951718536455
 20
437.290619614141
 30
0.0
 11
652.44209954619
 21
437.290619614141
 31
0.0
  0
LINE
  5
DD
330
1F
100
AcDbEntity
  8
FREI LASSEN
  6
AUSGEZOGEN
 62
    18
420
        0
370
    18
100
AcDbLine
 10
632.336478147077
 20
437.290619614141
 30
0.0
 11
632.826859156812
 21
437.290619614141
 31
0.0
  0
LINE
  5
DE
330
1F
100
AcDbEntity
  8
FREI LASSEN
  6
AUSGEZOGEN
 62
    18
420
        0
370
    18
100
AcDbLine
 10
615.173142806371
 20
437.290619614141
 30
0.0
 11
615.663523816106
 21
437.290619614141
 31
0.0
  0
LINE
  5
DF
330
1F
100
AcDbEntity
  8
FREI LASSEN
  6
AUSGEZOGEN
 62
    18
420
        0
370
    18
100
AcDbLine
 10
595.557902416993
 20
437.290619614141
 30
0.0
 11
596.048283426728
 21
437.290619614141
 31
0.0
  0
LINE
  5
E0
330
1F
100
AcDbEntity
  8
FREI LASSEN
  6
AUSGEZOGEN
 62
    18
420
        0
370
    18
100
AcDbLine
 10
575.942662027615
 20
437.290619614141
 30
0.0
 11
576.433043037349
 21
437.290619614141
 31
0.0
  0
LINE
  5
E1
330
1F
100
AcDbEntity
  8
FREI LASSEN
  6
AUSGEZOGEN
 62
    18
420
        0
370
    18
100
AcDbLine
 10
556.327421638237
 20
437.290619614141
 30
0.0
 11
556.817802647971
 21
437.290619614141
 31
0.0
  0
LINE
  5
E2
330
1F
100
AcDbEntity
  8
FREI LASSEN
  6
AUSGEZOGEN
 62
    18
420
        0
370
    18
100
AcDbLine
 10
536.712181248859
 20
437.290619614141
 30
0.0
 11
537.202562258593
 21
437.290619614141
 31
0.0
  0
LINE
  5
E3
330
1F
100
AcDbEntity
  8
FREI LASSEN
  6
AUSGEZOGEN
 62
    18
420
        0
370
    18
100
AcDbLine
 10
517.09694085948
 20
437.290619614141
 30
0.0
 11
517.587321869215
 21
437.290619614141
 31
0.0
  0
ARC
  5
E4
330
1F
100
AcDbEntity
  8
FREI LASSEN
  6
AUSGEZOGEN
 62
    18
420
        0
370
    18
100
AcDbCircle
 10
517.09694085948
 20
438.27138163361
 30
0.0
 40
0.9807620194689065
100
AcDbArc
 50
180.0
 51
270.0
  0
ARC
  5
E5
330
1F
100
AcDbEntity
  8
FREI LASSEN
  6
AUSGEZOGEN
 62
    18
420
        0
370
    18
100
AcDbCircle
 10
517.587321869215
 20
438.27138163361
 30
0.0
 40
0.9807620194689065
100
AcDbArc
 50
270.0
 51
0.0
  0
ARC
  5
E6
330
1F
100
AcDbEntity
  8
FREI LASSEN
  6
AUSGEZOGEN
 62
    18
420
        0
370
    18
100
AcDbCircle
 10
536.712181248859
 20
438.27138163361
 30
0.0
 40
0.9807620194689065
100
AcDbArc
 50
180.0
 51
270.0
  0
ARC
  5
E7
330
1F
100
AcDbEntity
  8
FREI LASSEN
  6
AUSGEZOGEN
 62
    18
420
        0
370
    18
100
AcDbCircle
 10
537.202562258593
 20
438.27138163361
 30
0.0
 40
0.9807620194689065
100
AcDbArc
 50
270.0
 51
0.0
  0
ARC
  5
E8
330
1F
100
AcDbEntity
  8
FREI LASSEN
  6
AUSGEZOGEN
 62
    18
420
        0
370
    18
100
AcDbCircle
 10
556.327421638237
 20
438.27138163361
 30
0.0
 40
0.9807620194689065
100
AcDbArc
 50
180.0
 51
270.0
  0
ARC
  5
E9
330
1F
100
AcDbEntity
  8
FREI LASSEN
  6
AUSGEZOGEN
 62
    18
420
        0
370
    18
100
AcDbCircle
 10
556.817802647971
 20
438.27138163361
 30
0.0
 40
0.9807620194689065
100
AcDbArc
 50
270.0
 51
0.0
  0
ARC
  5
EA
330
1F
100
AcDbEntity
  8
FREI LASSEN
  6
AUSGEZOGEN
 62
    18
420
        0
370
    18
100
AcDbCircle
 10
575.942662027615
 20
438.27138163361
 30
0.0
 40
0.9807620194689065
100
AcDbArc
 50
180.0
 51
270.0
  0
ARC
  5
EB
330
1F
100
AcDbEntity
  8
FREI LASSEN
  6
AUSGEZOGEN
 62
    18
420
        0
370
    18
100
AcDbCircle
 10
576.433043037349
 20
438.27138163361
 30
0.0
 40
0.9807620194689065
100
AcDbArc
 50
270.0
 51
0.0
  0
ARC
  5
EC
330
1F
100
AcDbEntity
  8
FREI LASSEN
  6
AUSGEZOGEN
 62
    18
420
        0
370
    18
100
AcDbCircle
 10
595.557902416993
 20
438.27138163361
 30
0.0
 40
0.9807620194689065
100
AcDbArc
 50
180.0
 51
270.0
  0
ARC
  5
ED
330
1F
100
AcDbEntity
  8
FREI LASSEN
  6
AUSGEZOGEN
 62
    18
420
        0
370
    18
100
AcDbCircle
 10
596.048283426728
 20
438.27138163361
 30
0.0
 40
0.9807620194689065
100
AcDbArc
 50
270.0
 51
0.0
  0
ARC
  5
EE
330
1F
100
AcDbEntity
  8
FREI LASSEN
  6
AUSGEZOGEN
 62
    18
420
        0
370
    18
100
AcDbCircle
 10
615.173142806371
 20
438.27138163361
 30
0.0
 40
0.9807620194689065
100
AcDbArc
 50
180.0
 51
270.0
  0
ARC
  5
EF
330
1F
100
AcDbEntity
  8
FREI LASSEN
  6
AUSGEZOGEN
 62
    18
420
        0
370
    18
100
AcDbCircle
 10
615.663523816106
 20
438.27138163361
 30
0.0
 40
0.9807620194689065
100
AcDbArc
 50
270.0
 51
0.0
  0
ARC
  5
F0
330
1F
100
AcDbEntity
  8
FREI LASSEN
  6
AUSGEZOGEN
 62
    18
420
        0
370
    18
100
AcDbCircle
 10
632.336478147077
 20
438.27138163361
 30
0.0
 40
0.9807620194689065
100
AcDbArc
 50
180.0
 51
270.0
  0
ARC
  5
F1
330
1F
100
AcDbEntity
  8
FREI LASSEN
  6
AUSGEZOGEN
 62
    18
420
        0
370
    18
100
AcDbCircle
 10
632.826859156812
 20
438.27138163361
 30
0.0
 40
0.9807620194689065
100
AcDbArc
 50
270.0
 51
0.0
  0
ARC
  5
F2
330
1F
100
AcDbEntity
  8
FREI LASSEN
  6
AUSGEZOGEN
 62
    18
420
        0
370
    18
100
AcDbCircle
 10
651.951718536455
 20
438.27138163361
 30
0.0
 40
0.9807620194689065
100
AcDbArc
 50
180.0
 51
270.0
  0
ARC
  5
F3
330
1F
100
AcDbEntity
  8
FREI LASSEN
  6
AUSGEZOGEN
 62
    18
420
        0
370
    18
100
AcDbCircle
 10
652.44209954619
 20
438.27138163361
 30
0.0
 40
0.9807620194689065
100
AcDbArc
 50
270.0
 51
0.0
  0
ARC
  5
F4
330
1F
100
AcDbEntity
  8
FREI LASSEN
  6
AUSGEZOGEN
 62
    18
420
        0
370
    18
100
AcDbCircle
 10
671.566958925833
 20
438.27138163361
 30
0.0
 40
0.9807620194689065
100
AcDbArc
 50
180.0
 51
270.0
  0
ARC
  5
F5
330
1F
100
AcDbEntity
  8
FREI LASSEN
  6
AUSGEZOGEN
 62
    18
420
        0
370
    18
100
AcDbCircle
 10
672.057339935568
 20
438.27138163361
 30
0.0
 40
0.9807620194689065
100
AcDbArc
 50
270.0
 51
0.0
  0
ARC
  5
F6
330
1F
100
AcDbEntity
  8
FREI LASSEN
  6
AUSGEZOGEN
 62
    18
420
        0
370
    18
100
AcDbCircle
 10
691.182199315212
 20
438.27138163361
 30
0.0
 40
0.9807620194689065
100
AcDbArc
 50
180.0
 51
270.0
  0
ARC
  5
F7
330
1F
100
AcDbEntity
  8
FREI LASSEN
  6
AUSGEZOGEN
 62
    18
420
        0
370
    18
100
AcDbCircle
 10
691.672580324946
 20
438.27138163361
 30
0.0
 40
0.9807620194689065
100
AcDbArc
 50
270.0
 51
0.0
  0
ARC
  5
F8
330
1F
100
AcDbEntity
  8
FREI LASSEN
  6
AUSGEZOGEN
 62
    18
420
        0
370
    18
100
AcDbCircle
 10
710.79743970459
 20
438.27138163361
 30
0.0
 40
0.9807620194689065
100
AcDbArc
 50
180.0
 51
270.0
  0
ARC
  5
F9
330
1F
100
AcDbEntity
  8
FREI LASSEN
  6
AUSGEZOGEN
 62
    18
420
        0
370
    18
100
AcDbCircle
 10
711.287820714324
 20
438.27138163361
 30
0.0
 40
0.9807620194689065
100
AcDbArc
 50
270.0
 51
0.0
  0
ARC
  5
FA
330
1F
100
AcDbEntity
  8
FREI LASSEN
  6
AUSGEZOGEN
 62
    18
420
        0
370
    18
100
AcDbCircle
 10
730.412680093968
 20
438.27138163361
 30
0.0
 40
0.9807620194689065
100
AcDbArc
 50
180.0
 51
270.0
  0
ARC
  5
FB
330
1F
100
AcDbEntity
  8
FREI LASSEN
  6
AUSGEZOGEN
 62
    18
420
        0
370
    18
100
AcDbCircle
 10
730.903061103702
 20
438.27138163361
 30
0.0
 40
0.9807620194689065
100
AcDbArc
 50
270.0
 51
0.0
  0
HATCH
  5
FC
330
1F
100
AcDbEntity
  8
FREI LASSEN
  6
AUSGEZOGEN
 62
    18
420
        0
370
    18
100
AcDbHatch
 10
0.0
 20
0.0
 30
0.0
210
0.0
220
0.0
230
1.0
  2
SOLID
 70
     1
 71
     0
 91
        1
 92
        2
 72
     1
 73
     1
 93
        5
 10
503.9903819913258
 20
429.2872948137666
 42
0.2171611561381983
 10
505.5000009815913
 20
428.5991829584763
 42
0.0
 10
506.442287039998
 20
428.5991829584763
 42
0.0
 10
506.442287039998
 20
449.0597638477683
 42
0.0
 10
503.9903819913258
 20
449.0597638477683
 42
0.0
 97
        0
 75
     0
 76
     1
 98
        0
  0
HATCH
  5
FD
330
1F
100
AcDbEntity
  8
FREI LASSEN
  6
AUSGEZOGEN
 62
    18
420
        0
370
    18
100
AcDbHatch
 10
0.0
 20
0.0
 30
0.0
210
0.0
220
0.0
230
1.0
  2
SOLID
 70
     1
 71
     0
 91
       13
 92
        2
 72
     1
 73
     1
 93
        6
 10
516.1161788400117
 20
438.2713816336103
 42
0.4142135623731241
 10
517.0969408594805
 20
437.2906196141414
 42
0.0
 10
517.587321869215
 20
437.2906196141414
 42
0.4142135623731001
 10
518.5680838886839
 20
438.2713816336103
 42
0.0
 10
518.5680838886839
 20
449.0597638477683
 42
0.0
 10
516.1161788400117
 20
449.0597638477683
 42
0.0
 97
        0
 92
        2
 72
     1
 73
     1
 93
        6
 10
535.7314192293898
 20
438.2713816336103
 42
0.4142135623731001
 10
536.7121812488587
 20
437.2906196141414
 42
0.0
 10
537.202562258593
 20
437.2906196141414
 42
0.4142135623730762
 10
538.1833242780621
 20
438.2713816336103
 42
0.0
 10
538.1833242780621
 20
449.0597638477683
 42
0.0
 10
535.7314192293898
 20
449.0597638477683
 42
0.0
 97
        0
 92
        2
 72
     1
 73
     1
 93
        6
 10
557.7985646674401
 20
449.0597638477683
 42
0.0
 10
555.346659618768
 20
449.0597638477683
 42
0.0
 10
555.346659618768
 20
438.2713816336103
 42
0.4142135623730845
 10
556.3274216382368
 20
437.2906196141414
 42
0.0
 10
556.8178026479712
 20
437.2906196141414
 42
0.4142135623730845
 10
557.7985646674401
 20
438.2713816336103
 42
0.0
 97
        0
 92
        2
 72
     1
 73
     1
 93
        6
 10
577.4138050568183
 20
449.0597638477683
 42
0.0
 10
574.961900008146
 20
449.0597638477683
 42
0.0
 10
574.961900008146
 20
438.2713816336103
 42
0.4142135623730845
 10
575.9426620276149
 20
437.2906196141414
 42
0.0
 10
576.4330430373493
 20
437.2906196141414
 42
0.4142135623730605
 10
577.4138050568183
 20
438.2713816336103
 42
0.0
 97
        0
 92
        2
 72
     1
 73
     1
 93
        6
 10
597.0290454461964
 20
449.0597638477683
 42
0.0
 10
594.5771403975242
 20
449.0597638477683
 42
0.0
 10
594.5771403975242
 20
438.2713816336103
 42
0.4142135623730845
 10
595.5579024169931
 20
437.2906196141414
 42
0.0
 10
596.0482834267276
 20
437.2906196141414
 42
0.4142135623731085
 10
597.0290454461964
 20
438.2713816336103
 42
0.0
 97
        0
 92
        2
 72
     1
 73
     1
 93
        6
 10
616.6442858355746
 20
449.0597638477683
 42
0.0
 10
614.1923807869023
 20
449.0597638477683
 42
0.0
 10
614.1923807869023
 20
438.2713816336103
 42
0.4142135623730845
 10
615.1731428063712
 20
437.2906196141414
 42
0.0
 10
615.6635238161057
 20
437.2906196141414
 42
0.4142135623730845
 10
616.6442858355746
 20
438.2713816336103
 42
0.0
 97
        0
 92
        2
 72
     1
 73
     1
 93
        6
 10
631.3557161276082
 20
438.2713816336103
 42
0.4142135623730845
 10
632.3364781470771
 20
437.2906196141414
 42
0.0
 10
632.8268591568116
 20
437.2906196141414
 42
0.4142135623730845
 10
633.8076211762805
 20
438.2713816336103
 42
0.0
 10
633.8076211762805
 20
449.0597638477683
 42
0.0
 10
631.3557161276082
 20
449.0597638477683
 42
0.0
 97
        0
 92
        2
 72
     1
 73
     1
 93
        6
 10
653.4228615656586
 20
449.0597638477683
 42
0.0
 10
650.9709565169862
 20
449.0597638477683
 42
0.0
 10
650.9709565169862
 20
438.2713816336103
 42
0.4142135623730605
 10
651.9517185364552
 20
437.2906196141414
 42
0.0
 10
652.4420995461896
 20
437.2906196141414
 42
0.4142135623730845
 10
653.4228615656585
 20
438.2713816336103
 42
0.0
 97
        0
 92
        2
 72
     1
 73
     1
 93
        6
 10
670.5861969063644
 20
438.2713816336103
 42
0.4142135623730845
 10
671.5669589258333
 20
437.2906196141414
 42
0.0
 10
672.0573399355678
 20
437.2906196141414
 42
0.4142135623730845
 10
673.0381019550367
 20
438.2713816336103
 42
0.0
 10
673.0381019550367
 20
449.0597638477683
 42
0.0
 10
670.5861969063644
 20
449.0597638477683
 42
0.0
 97
        0
 92
        2
 72
     1
 73
     1
 93
        6
 10
692.6533423444148
 20
449.0597638477683
 42
0.0
 10
690.2014372957426
 20
449.0597638477683
 42
0.0
 10
690.2014372957426
 20
438.2713816336103
 42
0.4142135623731001
 10
691.1821993152115
 20
437.2906196141414
 42
0.0
 10
691.6725803249459
 20
437.2906196141414
 42
0.4142135623731001
 10
692.6533423444148
 20
438.2713816336103
 42
0.0
 97
        0
 92
        2
 72
     1
 73
     1
 93
        6
 10
712.268582733793
 20
449.0597638477683
 42
0.0
 10
709.8166776851207
 20
449.0597638477683
 42
0.0
 10
709.8166776851207
 20
438.2713816336103
 42
0.4142135623731001
 10
710.7974397045896
 20
437.2906196141414
 42
0.0
 10
711.287820714324
 20
437.2906196141414
 42
0.4142135623730762
 10
712.268582733793
 20
438.2713816336103
 42
0.0
 97
        0
 92
        2
 72
     1
 73
     1
 93
        6
 10
731.883823123171
 20
449.0597638477683
 42
0.0
 10
729.4319180744989
 20
449.0597638477683
 42
0.0
 10
729.4319180744989
 20
438.2713816336103
 42
0.4142135623731001
 10
730.4126800939678
 20
437.2906196141414
 42
0.0
 10
730.9030611037022
 20
437.2906196141414
 42
0.4142135623731001
 10
731.883823123171
 20
438.2713816336103
 42
0.0
 97
        0
 92
        2
 72
     1
 73
     1
 93
        5
 10
741.5577149231847
 20
428.5991829584763
 42
0.0
 10
742.5000009815914
 20
428.5991829584763
 42
0.2171611561382069
 10
744.009619971857
 20
429.2872948137667
 42
0.0
 10
744.009619971857
 20
449.0597638477683
 42
0.0
 10
741.5577149231847
 20
449.0597638477683
 42
0.0
 97
        0
 75
     0
 76
     1
 98
        0
  0
LINE
  5
FE
330
1F
100
AcDbEntity
  8
FREI LASSEN
  6
AUSGEZOGEN
 62
    18
420
        0
370
    18
100
AcDbLine
 10
566.850000981591
 20
407.599182958476
 30
0.0
 11
681.150000981591
 21
407.599182958476
 31
0.0
  0
LINE
  5
FF
330
1F
100
AcDbEntity
  8
FREI LASSEN
  6
AUSGEZOGEN
 62
    18
420
        0
370
    18
100
AcDbLine
 10
514.851718287233
 20
428.599182958476
 30
0.0
 11
567.850000981591
 21
409.363894110476
 31
0.0
  0
LINE
  5
100
330
1F
100
AcDbEntity
  8
FREI LASSEN
  6
AUSGEZOGEN
 62
    18
420
        0
370
    18
100
AcDbLine
 10
680.150000981591
 20
409.363894110476
 30
0.0
 11
733.14828367595
 21
428.599182958476
 31
0.0
  0
HATCH
  5
101
330
1F
100
AcDbEntity
  8
FREI LASSEN
  6
AUSGEZOGEN
 62
    18
420
        0
370
    18
100
AcDbHatch
 10
0.0
 20
0.0
 30
0.0
210
0.0
220
0.0
230
1.0
  2
SOLID
 70
     1
 71
     0
 91
        2
 92
        2
 72
     1
 73
     1
 93
        8
 10
505.5000009815913
 20
428.5991829584763
 42
-0.4142135623731064
 10
503.5000009815913
 20
430.5991829584763
 42
0.0
 10
503.5000009815913
 20
449.5991829584763
 42
0.0
 10
501.5000009815914
 20
449.5991829584763
 42
0.0
 10
501.5000009815914
 20
430.0991829584763
 42
0.414213562373105
 10
505.0000009815913
 20
426.5991829584763
 42
0.0
 10
514.5000009815914
 20
426.5991829584763
 42
0.0
 10
514.5000009815914
 20
428.5991829584763
 42
0.0
 97
        0
 92
        2
 72
     0
 73
     1
 93
        8
 10
566.8500009815914
 20
407.5991829584763
 10
567.8500009815914
 20
407.5991829584763
 10
567.8500009815914
 20
409.3638941104761
 10
514.8517182872331
 20
428.5991829584763
 10
514.5000009815914
 20
428.5991829584763
 10
514.5000009815914
 20
426.5991829584763
 10
566.8500009815914
 20
407.5991829584761
 10
566.8500009815914
 20
408.6839553343289
 97
        0
 75
     0
 76
     1
 98
        0
  0
HATCH
  5
102
330
1F
100
AcDbEntity
  8
FREI LASSEN
  6
AUSGEZOGEN
 62
    18
420
        0
370
    18
100
AcDbHatch
 10
0.0
 20
0.0
 30
0.0
210
0.0
220
0.0
230
1.0
  2
SOLID
 70
     1
 71
     0
 91
        2
 92
        2
 72
     0
 73
     1
 93
        6
 10
733.1482836759498
 20
428.5991829584763
 10
680.1500009815913
 20
409.3638941104761
 10
680.1500009815913
 20
407.5991829584763
 10
681.1500009815915
 20
407.5991829584763
 10
733.5000009815914
 20
426.5991829584763
 10
733.5000009815914
 20
428.5991829584763
 97
        0
 92
        2
 72
     1
 73
     1
 93
        8
 10
744.5000009815915
 20
449.5991829584763
 42
0.0
 10
744.5000009815915
 20
430.5991829584763
 42
-0.4142135623730893
 10
742.5000009815914
 20
428.5991829584763
 42
0.0
 10
733.5000009815914
 20
428.5991829584763
 42
0.0
 10
733.5000009815914
 20
426.5991829584763
 42
0.0
 10
743.0000009815914
 20
426.5991829584763
 42
0.4142135623730933
 10
746.5000009815914
 20
430.0991829584763
 42
0.0
 10
746.5000009815914
 20
449.5991829584763
 42
0.0
 97
        0
 75
     0
 76
     1
 98
        0
  0
LINE
  5
103
330
1F
100
AcDbEntity
  8
FREI LASSEN
  6
AUSGEZOGEN
 62
    18
420
        0
370
    18
100
AcDbLine
 10
733.500000981591
 20
426.599182958476
 30
0.0
 11
743.000000981591
 21
426.599182958476
 31
0.0
  0
LINE
  5
104
330
1F
100
AcDbEntity
  8
FREI LASSEN
  6
AUSGEZOGEN
 62
    18
420
        0
370
    18
100
AcDbLine
 10
733.500000981591
 20
426.599182958476
 30
0.0
 11
743.000000981591
 21
426.599182958476
 31
0.0
  0
INSERT
  5
113
330
1F
100
AcDbEntity
  8
0
100
AcDbBlockReference
  2
Montagefuss Typ 200 G (25mm)_001_003_nNn00
 10
0.0
 20
0.0
 30
0.0
  0
LINE
  5
114
330
1F
100
AcDbEntity
  8
FREI LASSEN
  6
AUSGEZOGEN
 62
    18
420
        0
370
    18
100
AcDbLine
 10
777.337210283917
 20
401.599182958476
 30
0.0
 11
777.337210283917
 21
402.761973656151
 31
0.0
  0
LINE
  5
115
330
1F
100
AcDbEntity
  8
FREI LASSEN
  6
AUSGEZOGEN
 62
    18
420
        0
370
    18
100
AcDbLine
 10
772.337210283917
 20
401.599182958476
 30
0.0
 11
772.337210283917
 21
402.761973656151
 31
0.0
  0
LINE
  5
116
330
1F
100
AcDbEntity
  8
FREI LASSEN
  6
AUSGEZOGEN
 62
    18
420
        0
370
    18
100
AcDbLine
 10
763.337210283917
 20
401.599182958476
 30
0.0
 11
763.337210283917
 21
402.761973656151
 31
0.0
  0
HATCH
  5
117
330
1F
100
AcDbEntity
  8
FREI LASSEN
  6
AUSGEZOGEN
 62
    18
420
        0
370
    18
100
AcDbHatch
 10
0.0
 20
0.0
 30
0.0
210
0.0
220
0.0
230
1.0
  2
SOLID
 70
     1
 71
     0
 91
        2
 92
        2
 72
     1
 73
     1
 93
       12
 10
733.5000009815914
 20
426.5991829584763
 42
0.0
 10
751.7558149350798
 20
426.5991829584763
 42
-0.4142135623731168
 10
753.5000009815914
 20
424.8549969119647
 42
0.0
 10
753.5000009815915
 20
403.3433690049878
 42
0.4142135623730741
 10
754.0813963304287
 20
402.7619736561506
 42
0.0
 10
763.337210283917
 20
402.7619736561506
 42
0.0
 10
763.337210283917
 20
401.5991829584763
 42
0.0
 10
754.0813963304287
 20
401.5991829584763
 42
-0.4142135623731006
 10
752.3372102839171
 20
403.3433690049878
 42
0.0
 10
752.337210283917
 20
424.8549969119647
 42
0.4142135623730985
 10
751.7558149350798
 20
425.4363922608019
 42
0.0
 10
733.5000009815914
 20
425.4363922608019
 42
0.0
 97
        0
 92
        2
 72
     0
 73
     1
 93
        4
 10
777.337210283917
 20
402.7619736561506
 10
777.337210283917
 20
401.5991829584763
 10
772.337210283917
 20
401.5991829584763
 10
772.337210283917
 20
402.7619736561506
 97
        0
 75
     0
 76
     1
 98
        0
  0
LINE
  5
118
330
1F
100
AcDbEntity
  8
FREI LASSEN
  6
AUSGEZOGEN
 62
    18
420
        0
370
    18
100
AcDbLine
 10
514.500000981591
 20
426.599182958475
 30
0.0
 11
505.000000981591
 21
426.599182958475
 31
0.0
  0
LINE
  5
119
330
1F
100
AcDbEntity
  8
FREI LASSEN
  6
AUSGEZOGEN
 62
    18
420
        0
370
    18
100
AcDbLine
 10
514.500000981591
 20
426.599182958475
 30
0.0
 11
505.000000981591
 21
426.599182958475
 31
0.0
  0
LINE
  5
11A
330
1F
100
AcDbEntity
  8
FREI LASSEN
  6
AUSGEZOGEN
 62
    18
420
        0
370
    18
100
AcDbLine
 10
514.500000981591
 20
426.599182958475
 30
0.0
 11
505.000000981591
 21
426.599182958475
 31
0.0
  0
INSERT
  5
129
330
1F
100
AcDbEntity
  8
0
100
AcDbBlockReference
  2
Montagefuss Typ 200 G (25mm)_001_003_nNn01
 10
0.0
 20
0.0
 30
0.0
  0
LINE
  5
12A
330
1F
100
AcDbEntity
  8
FREI LASSEN
  6
AUSGEZOGEN
 62
    18
420
        0
370
    18
100
AcDbLine
 10
470.662791679266
 20
401.599182958474
 30
0.0
 11
470.662791679266
 21
402.761973656149
 31
0.0
  0
LINE
  5
12B
330
1F
100
AcDbEntity
  8
FREI LASSEN
  6
AUSGEZOGEN
 62
    18
420
        0
370
    18
100
AcDbLine
 10
475.662791679266
 20
401.599182958475
 30
0.0
 11
475.662791679266
 21
402.761973656149
 31
0.0
  0
LINE
  5
12C
330
1F
100
AcDbEntity
  8
FREI LASSEN
  6
AUSGEZOGEN
 62
    18
420
        0
370
    18
100
AcDbLine
 10
484.662791679266
 20
401.599182958475
 30
0.0
 11
484.662791679266
 21
402.761973656149
 31
0.0
  0
HATCH
  5
12D
330
1F
100
AcDbEntity
  8
FREI LASSEN
  6
AUSGEZOGEN
 62
    18
420
        0
370
    18
100
AcDbHatch
 10
0.0
 20
0.0
 30
0.0
210
0.0
220
0.0
230
1.0
  2
SOLID
 70
     1
 71
     0
 91
        2
 92
        2
 72
     1
 73
     1
 93
       12
 10
514.5000009815913
 20
426.599182958475
 42
0.0
 10
496.2441870281028
 20
426.5991829584748
 42
0.4142135623731033
 10
494.5000009815913
 20
424.8549969119631
 42
0.0
 10
494.5000009815914
 20
403.3433690049864
 42
-0.4142135623730336
 10
493.9186056327542
 20
402.7619736561491
 42
0.0
 10
484.6627916792659
 20
402.7619736561491
 42
0.0
 10
484.6627916792659
 20
401.5991829584747
 42
0.0
 10
493.9186056327543
 20
401.5991829584748
 42
0.414213562373114
 10
495.6627916792658
 20
403.3433690049864
 42
0.0
 10
495.6627916792656
 20
424.8549969119631
 42
-0.4142135623730985
 10
496.2441870281028
 20
425.4363922608003
 42
0.0
 10
514.5000009815913
 20
425.4363922608005
 42
0.0
 97
        0
 92
        2
 72
     0
 73
     1
 93
        4
 10
470.6627916792659
 20
402.7619736561488
 10
470.6627916792659
 20
401.5991829584744
 10
475.6627916792659
 20
401.5991829584746
 10
475.6627916792659
 20
402.7619736561489
 97
        0
 75
     0
 76
     1
 98
        0
  0
HATCH
  5
12E
330
1F
100
AcDbEntity
  8
FREI LASSEN
  6
AUSGEZOGEN
 62
    18
420
        0
370
    18
100
AcDbHatch
 10
0.0
 20
0.0
 30
0.0
210
0.0
220
0.0
230
1.0
  2
SOLID
 70
     1
 71
     0
 91
        1
 92
        2
 72
     0
 73
     1
 93
        4
 10
567.8500009815914
 20
407.5991829584763
 10
566.8500009815914
 20
407.5991829584763
 10
566.8500009815914
 20
308.6839553343289
 10
567.8500009815914
 20
308.6839553343289
 97
        0
 75
     0
 76
     1
 98
        0
  0
HATCH
  5
12F
330
1F
100
AcDbEntity
  8
FREI LASSEN
  6
AUSGEZOGEN
 62
    18
420
        0
370
    18
100
AcDbHatch
 10
0.0
 20
0.0
 30
0.0
210
0.0
220
0.0
230
1.0
  2
SOLID
 70
     1
 71
     0
 91
        1
 92
        2
 72
     0
 73
     1
 93
        4
 10
680.1500009815913
 20
308.6839553343289
 10
681.1500009815913
 20
308.6839553343289
 10
681.1500009815915
 20
407.5991829584763
 10
680.1500009815913
 20
407.5991829584763
 97
        0
 75
     0
 76
     1
 98
        0
  0
ENDSEC
  0
SECTION
  2
OBJECTS
  0
DICTIONARY
  5
C
330
0
100
AcDbDictionary
281
     1
  3
ACAD_DETAILVIEWSTYLE
350
168
  3
ACAD_GROUP
350
D
  3
ACAD_LAYOUT
350
1A
  3
ACAD_MATERIAL
350
43
  3
ACAD_MLEADERSTYLE
350
6B
  3
ACAD_MLINESTYLE
350
17
  3
ACAD_PLOTSETTINGS
350
19
  3
ACAD_PLOTSTYLENAME
350
E
  3
ACAD_SCALELIST
350
47
  3
ACAD_SECTIONVIEWSTYLE
350
169
  3
ACAD_TABLESTYLE
350
69
  3
ACAD_VISUALSTYLE
350
2A
  3
ACAD_WIPEOUT_VARS
350
165
  3
ACDB_RECOMPOSE_DATA
350
164
  3
AcDbVariableDictionary
350
130
  0
SUN
  5
6D
330
29
100
AcDbSun
 90
        1
290
     0
 63
     7
421
 16777215
 40
1.0
291
     1
 91
  2455826
 92
 54000000
292
     0
 70
     2
 71
   256
280
     1
  0
DICTIONARY
  5
168
102
{ACAD_REACTORS
330
C
102
}
330
C
100
AcDbDictionary
281
     1
  0
DICTIONARY
  5
D
102
{ACAD_REACTORS
330
C
102
}
330
C
100
AcDbDictionary
281
     1
  0
DICTIONARY
  5
1A
102
{ACAD_REACTORS
330
C
102
}
330
C
100
AcDbDictionary
281
     1
  3
Layout1
350
1E
  3
Layout2
350
26
  3
Model
350
22
  0
DICTIONARY
  5
43
102
{ACAD_REACTORS
330
C
102
}
330
C
100
AcDbDictionary
281
     1
  3
ByBlock
350
45
  3
ByLayer
350
44
  3
Global
350
46
  0
DICTIONARY
  5
6B
102
{ACAD_REACTORS
330
C
102
}
330
C
100
AcDbDictionary
281
     1
  3
Standard
350
6C
  0
DICTIONARY
  5
17
102
{ACAD_REACTORS
330
C
102
}
330
C
100
AcDbDictionary
281
     1
  3
Standard
350
18
  0
DICTIONARY
  5
19
102
{ACAD_REACTORS
330
C
102
}
330
C
100
AcDbDictionary
281
     1
  0
ACDBDICTIONARYWDFLT
  5
E
102
{ACAD_REACTORS
330
C
102
}
330
C
100
AcDbDictionary
281
     1
  3
Normal
350
F
100
AcDbDictionaryWithDefault
340
F
  0
DICTIONARY
  5
47
102
{ACAD_REACTORS
330
C
102
}
330
C
100
AcDbDictionary
281
     1
  3
A0
350
48
  3
A1
350
49
  3
A2
350
4A
  3
A3
350
4B
  3
A4
350
4C
  3
A5
350
4D
  3
A6
350
4E
  3
A7
350
4F
  3
A8
350
50
  3
A9
350
51
  3
B0
350
52
  3
B1
350
53
  3
B2
350
54
  3
B3
350
55
  3
B4
350
56
  3
B5
350
57
  3
B6
350
58
  3
B7
350
59
  3
B8
350
5A
  3
B9
350
5B
  3
C0
350
5C
  3
C1
350
5D
  3
C2
350
5E
  3
C3
350
5F
  3
C4
350
60
  3
C5
350
61
  3
C6
350
62
  3
C7
350
63
  3
C8
350
64
  3
C9
350
65
  3
D0
350
66
  3
D1
350
67
  3
D2
350
68
  0
DICTIONARY
  5
169
102
{ACAD_REACTORS
330
C
102
}
330
C
100
AcDbDictionary
281
     1
  0
DICTIONARY
  5
69
102
{ACAD_REACTORS
330
C
102
}
330
C
100
AcDbDictionary
281
     1
  3
Standard
350
6A
  0
DICTIONARY
  5
2A
102
{ACAD_REACTORS
330
C
102
}
330
C
100
AcDbDictionary
281
     1
  3
2dWireframe
350
2F
  3
Basic
350
32
  3
Brighten
350
36
  3
ColorChange
350
3A
  3
Conceptual
350
34
  3
Dim
350
35
  3
EdgeColorOff
350
3D
  3
Facepattern
350
39
  3
Flat
350
2B
  3
FlatWithEdges
350
2C
  3
Gouraud
350
2D
  3
GouraudWithEdges
350
2E
  3
Hidden
350
31
  3
JitterOff
350
3B
  3
Linepattern
350
38
  3
OverhangOff
350
3C
  3
Realistic
350
33
  3
Shaded
350
42
  3
Shaded with edges
350
41
  3
Shades of Gray
350
3E
  3
Sketchy
350
3F
  3
Thicken
350
37
  3
Wireframe
350
30
  3
X-Ray
350
40
  0
WIPEOUTVARIABLES
  5
165
102
{ACAD_REACTORS
330
C
102
}
330
C
100
AcDbWipeoutVariables
 70
     0
  0
XRECORD
  5
164
102
{ACAD_REACTORS
330
C
102
}
330
C
100
AcDbXrecord
280
     1
 90
        1
330
6A
  0
DICTIONARY
  5
130
102
{ACAD_REACTORS
330
C
102
}
330
C
100
AcDbDictionary
281
     1
  3
CANNOSCALE
350
131
  3
CENTEREXE
350
16B
  3
CENTERLTYPEFILE
350
16C
  3
CMLEADERSTYLE
350
167
  3
CTABLESTYLE
350
166
  3
WIPEOUTFRAME
350
16A
  0
LAYOUT
  5
1E
102
{ACAD_REACTORS
330
1A
102
}
330
1A
100
AcDbPlotSettings
  1

  2
none_device
  4

  6

 40
0.0
 41
0.0
 42
0.0
 43
0.0
 44
0.0
 45
0.0
 46
0.0
 47
0.0
 48
0.0
 49
0.0
140
0.0
141
0.0
142
1.0
143
1.0
 70
   688
 72
     1
 73
     0
 74
     5
  7

 75
    16
 76
     0
 77
     2
 78
   300
147
1.0
148
0.0
149
0.0
100
AcDbLayout
  1
Layout1
 70
     1
 71
     1
 10
0.0
 20
0.0
 11
420.0
 21
297.0
 12
0.0
 22
0.0
 32
0.0
 14
1.000000000000E+20
 24
1.000000000000E+20
 34
1.000000000000E+20
 15
-1.000000000000E+20
 25
-1.000000000000E+20
 35
-1.000000000000E+20
146
0.0
 13
0.0
 23
0.0
 33
0.0
 16
1.0
 26
0.0
 36
0.0
 17
0.0
 27
1.0
 37
0.0
 76
     0
330
1B
  0
LAYOUT
  5
26
102
{ACAD_REACTORS
330
1A
102
}
330
1A
100
AcDbPlotSettings
  1

  2
none_device
  4

  6

 40
0.0
 41
0.0
 42
0.0
 43
0.0
 44
0.0
 45
0.0
 46
0.0
 47
0.0
 48
0.0
 49
0.0
140
0.0
141
0.0
142
1.0
143
1.0
 70
   688
 72
     1
 73
     0
 74
     5
  7

 75
    16
 76
     0
 77
     2
 78
   300
147
1.0
148
0.0
149
0.0
100
AcDbLayout
  1
Layout2
 70
     1
 71
     2
 10
0.0
 20
0.0
 11
0.0
 21
0.0
 12
0.0
 22
0.0
 32
0.0
 14
0.0
 24
0.0
 34
0.0
 15
0.0
 25
0.0
 35
0.0
146
0.0
 13
0.0
 23
0.0
 33
0.0
 16
1.0
 26
0.0
 36
0.0
 17
0.0
 27
1.0
 37
0.0
 76
     0
330
23
  0
LAYOUT
  5
22
102
{ACAD_REACTORS
330
1A
102
}
330
1A
100
AcDbPlotSettings
  1

  2
none_device
  4
Letter_(8.50_x_11.00_Inches)
  6

 40
6.35
 41
6.35
 42
6.35000508
 43
6.35000508
 44
215.9
 45
279.4
 46
0.0
 47
0.0
 48
0.0
 49
0.0
140
0.0
141
0.0
142
1.0
143
1.0
 70
  1712
 72
     1
 73
     0
 74
     0
  7

 75
     0
 76
     0
 77
     2
 78
   300
147
1.0
148
0.0
149
0.0
100
AcDbLayout
  1
Model
 70
     1
 71
     0
 10
0.0
 20
0.0
 11
420.0
 21
297.0
 12
0.0
 22
0.0
 32
0.0
 14
74.454882186803
 24
-8.184803767998
 34
0.0
 15
1173.54511977638
 25
471.398420421642
 35
0.0
146
0.0
 13
0.0
 23
0.0
 33
0.0
 16
1.0
 26
0.0
 36
0.0
 17
0.0
 27
1.0
 37
0.0
 76
     0
330
1F
331
29
  0
MATERIAL
  5
45
102
{ACAD_REACTORS
330
43
102
}
330
43
100
AcDbMaterial
  1
ByBlock
 72
     1
 94
      127
  0
MATERIAL
  5
44
102
{ACAD_REACTORS
330
43
102
}
330
43
100
AcDbMaterial
  1
ByLayer
 72
     1
 94
      127
  0
MATERIAL
  5
46
102
{ACAD_REACTORS
330
43
102
}
330
43
100
AcDbMaterial
  1
Global
 72
     1
 94
      127
  0
MLEADERSTYLE
  5
6C
102
{ACAD_REACTORS
330
6B
102
}
330
6B
100
AcDbMLeaderStyle
179
     2
170
     2
171
     1
172
     0
 90
        2
 40
0.0
 41
0.0
173
     1
 91
-1056964608
340
14
 92
       -2
290
     1
 42
2.0
291
     1
 43
8.0
  3
Standard
341
0
 44
4.0
300

342
11
174
     1
178
     6
175
     1
176
     0
 93
-1056964608
 45
4.0
292
     0
297
     0
 46
4.0
343
0
 94
-1056964608
 47
1.0
 49
1.0
140
1.0
293
     1
141
0.0
294
     1
177
     0
142
1.0
295
     0
296
     0
143
3.75
271
     0
272
     9
273
     9
  0
MLINESTYLE
  5
18
102
{ACAD_REACTORS
330
17
102
}
330
17
100
AcDbMlineStyle
  2
Standard
 70
     0
  3

 62
   256
 51
90.0
 52
90.0
 71
     2
 49
0.5
 62
   256
  6
BYLAYER
 49
-0.5
 62
   256
  6
BYLAYER
  0
ACDBPLACEHOLDER
  5
F
102
{ACAD_REACTORS
330
E
102
}
330
E
  0
SCALE
  5
48
102
{ACAD_REACTORS
330
47
102
}
330
47
100
AcDbScale
 70
     0
300
1:1
140
1.0
141
1.0
290
     1
  0
SCALE
  5
49
102
{ACAD_REACTORS
330
47
102
}
330
47
100
AcDbScale
 70
     0
300
1:2
140
1.0
141
2.0
290
     0
  0
SCALE
  5
4A
102
{ACAD_REACTORS
330
47
102
}
330
47
100
AcDbScale
 70
     0
300
1:4
140
1.0
141
4.0
290
     0
  0
SCALE
  5
4B
102
{ACAD_REACTORS
330
47
102
}
330
47
100
AcDbScale
 70
     0
300
1:5
140
1.0
141
5.0
290
     0
  0
SCALE
  5
4C
102
{ACAD_REACTORS
330
47
102
}
330
47
100
AcDbScale
 70
     0
300
1:8
140
1.0
141
8.0
290
     0
  0
SCALE
  5
4D
102
{ACAD_REACTORS
330
47
102
}
330
47
100
AcDbScale
 70
     0
300
1:10
140
1.0
141
10.0
290
     0
  0
SCALE
  5
4E
102
{ACAD_REACTORS
330
47
102
}
330
47
100
AcDbScale
 70
     0
300
1:16
140
1.0
141
16.0
290
     0
  0
SCALE
  5
4F
102
{ACAD_REACTORS
330
47
102
}
330
47
100
AcDbScale
 70
     0
300
1:20
140
1.0
141
20.0
290
     0
  0
SCALE
  5
50
102
{ACAD_REACTORS
330
47
102
}
330
47
100
AcDbScale
 70
     0
300
1:30
140
1.0
141
30.0
290
     0
  0
SCALE
  5
51
102
{ACAD_REACTORS
330
47
102
}
330
47
100
AcDbScale
 70
     0
300
1:40
140
1.0
141
40.0
290
     0
  0
SCALE
  5
52
102
{ACAD_REACTORS
330
47
102
}
330
47
100
AcDbScale
 70
     0
300
1:50
140
1.0
141
50.0
290
     0
  0
SCALE
  5
53
102
{ACAD_REACTORS
330
47
102
}
330
47
100
AcDbScale
 70
     0
300
1:100
140
1.0
141
100.0
290
     0
  0
SCALE
  5
54
102
{ACAD_REACTORS
330
47
102
}
330
47
100
AcDbScale
 70
     0
300
2:1
140
2.0
141
1.0
290
     0
  0
SCALE
  5
55
102
{ACAD_REACTORS
330
47
102
}
330
47
100
AcDbScale
 70
     0
300
4:1
140
4.0
141
1.0
290
     0
  0
SCALE
  5
56
102
{ACAD_REACTORS
330
47
102
}
330
47
100
AcDbScale
 70
     0
300
8:1
140
8.0
141
1.0
290
     0
  0
SCALE
  5
57
102
{ACAD_REACTORS
330
47
102
}
330
47
100
AcDbScale
 70
     0
300
10:1
140
10.0
141
1.0
290
     0
  0
SCALE
  5
58
102
{ACAD_REACTORS
330
47
102
}
330
47
100
AcDbScale
 70
     0
300
100:1
140
100.0
141
1.0
290
     0
  0
SCALE
  5
59
102
{ACAD_REACTORS
330
47
102
}
330
47
100
AcDbScale
 70
     0
300
1/128" = 1'-0"
140
0.0078125
141
12.0
290
     0
  0
SCALE
  5
5A
102
{ACAD_REACTORS
330
47
102
}
330
47
100
AcDbScale
 70
     0
300
1/64" = 1'-0"
140
0.015625
141
12.0
290
     0
  0
SCALE
  5
5B
102
{ACAD_REACTORS
330
47
102
}
330
47
100
AcDbScale
 70
     0
300
1/32" = 1'-0"
140
0.03125
141
12.0
290
     0
  0
SCALE
  5
5C
102
{ACAD_REACTORS
330
47
102
}
330
47
100
AcDbScale
 70
     0
300
1/16" = 1'-0"
140
0.0625
141
12.0
290
     0
  0
SCALE
  5
5D
102
{ACAD_REACTORS
330
47
102
}
330
47
100
AcDbScale
 70
     0
300
3/32" = 1'-0"
140
0.09375
141
12.0
290
     0
  0
SCALE
  5
5E
102
{ACAD_REACTORS
330
47
102
}
330
47
100
AcDbScale
 70
     0
300
1/8" = 1'-0"
140
0.125
141
12.0
290
     0
  0
SCALE
  5
5F
102
{ACAD_REACTORS
330
47
102
}
330
47
100
AcDbScale
 70
     0
300
3/16" = 1'-0"
140
0.1875
141
12.0
290
     0
  0
SCALE
  5
60
102
{ACAD_REACTORS
330
47
102
}
330
47
100
AcDbScale
 70
     0
300
1/4" = 1'-0"
140
0.25
141
12.0
290
     0
  0
SCALE
  5
61
102
{ACAD_REACTORS
330
47
102
}
330
47
100
AcDbScale
 70
     0
300
3/8" = 1'-0"
140
0.375
141
12.0
290
     0
  0
SCALE
  5
62
102
{ACAD_REACTORS
330
47
102
}
330
47
100
AcDbScale
 70
     0
300
1/2" = 1'-0"
140
0.5
141
12.0
290
     0
  0
SCALE
  5
63
102
{ACAD_REACTORS
330
47
102
}
330
47
100
AcDbScale
 70
     0
300
3/4" = 1'-0"
140
0.75
141
12.0
290
     0
  0
SCALE
  5
64
102
{ACAD_REACTORS
330
47
102
}
330
47
100
AcDbScale
 70
     0
300
1" = 1'-0"
140
1.0
141
12.0
290
     0
  0
SCALE
  5
65
102
{ACAD_REACTORS
330
47
102
}
330
47
100
AcDbScale
 70
     0
300
1-1/2" = 1'-0"
140
1.5
141
12.0
290
     0
  0
SCALE
  5
66
102
{ACAD_REACTORS
330
47
102
}
330
47
100
AcDbScale
 70
     0
300
3" = 1'-0"
140
3.0
141
12.0
290
     0
  0
SCALE
  5
67
102
{ACAD_REACTORS
330
47
102
}
330
47
100
AcDbScale
 70
     0
300
6" = 1'-0"
140
6.0
141
12.0
290
     0
  0
SCALE
  5
68
102
{ACAD_REACTORS
330
47
102
}
330
47
100
AcDbScale
 70
     0
300
1'-0" = 1'-0"
140
12.0
141
12.0
290
     0
  0
TABLESTYLE
  5
6A
102
{ACAD_REACTORS
330
69
102
}
102
{ACAD_XDICTIONARY
360
162
102
}
330
69
100
AcDbTableStyle
  3
Standard
 70
     0
 71
     0
 40
0.06
 41
0.06
280
     0
281
     0
  7
Standard
140
4.5
170
     2
 62
     0
 63
   257
283
     0
 90
        4
 91
        0
  1

274
    -2
284
     1
 64
     0
275
    -2
285
     1
 65
     0
276
    -2
286
     1
 66
     0
277
    -2
287
     1
 67
     0
278
    -2
288
     1
 68
     0
279
    -2
289
     1
 69
     0
  7
Standard
140
6.0
170
     5
 62
     0
 63
   257
283
     0
 90
        4
 91
        0
  1

274
    -2
284
     1
 64
     0
275
    -2
285
     1
 65
     0
276
    -2
286
     1
 66
     0
277
    -2
287
     1
 67
     0
278
    -2
288
     1
 68
     0
279
    -2
289
     1
 69
     0
  7
Standard
140
4.5
170
     5
 62
     0
 63
   257
283
     0
 90
        4
 91
        0
  1

274
    -2
284
     1
 64
     0
275
    -2
285
     1
 65
     0
276
    -2
286
     1
 66
     0
277
    -2
287
     1
 67
     0
278
    -2
288
     1
 68
     0
279
    -2
289
     1
 69
     0
  0
VISUALSTYLE
  5
2F
102
{ACAD_REACTORS
330
2A
102
}
102
{ACAD_XDICTIONARY
360
13A
102
}
330
2A
100
AcDbVisualStyle
  2
2dWireframe
 70
     4
177
     2
291
     0
 71
     0
176
     1
 72
     2
176
     1
 73
     0
176
     1
 90
        0
176
     1
 40
0.6
176
     1
 41
30.0
176
     1
 62
     5
 63
     7
421
 16777215
176
     1
 74
     1
176
     1
 91
        4
176
     1
 64
     7
176
     1
 65
   257
176
     1
 75
     1
176
     1
175
     1
176
     1
 42
1.0
176
     1
 92
        0
176
     1
 66
   257
176
     1
 43
1.0
176
     1
 76
     1
176
     1
 77
     6
176
     1
 78
     2
176
     1
 67
     7
176
     1
 79
     5
176
     1
170
     0
176
     1
171
     0
176
     1
290
     0
176
     1
 93
        1
176
     1
 44
0.0
176
     1
173
     0
176
     1
  0
VISUALSTYLE
  5
32
102
{ACAD_REACTORS
330
2A
102
}
102
{ACAD_XDICTIONARY
360
140
102
}
330
2A
100
AcDbVisualStyle
  2
Basic
 70
     7
177
     2
291
     1
 71
     1
176
     1
 72
     0
176
     1
 73
     1
176
     1
 90
        0
176
     1
 40
0.6
176
     1
 41
30.0
176
     1
 62
     5
 63
     7
421
 16777215
176
     1
 74
     0
176
     1
 91
        4
176
     1
 64
     7
176
     1
 65
   257
176
     1
 75
     1
176
     1
175
     1
176
     1
 42
1.0
176
     1
 92
        8
176
     1
 66
     7
176
     1
 43
1.0
176
     1
 76
     1
176
     1
 77
     6
176
     1
 78
     2
176
     1
 67
     7
176
     1
 79
     5
176
     1
170
     0
176
     1
171
     0
176
     1
290
     0
176
     1
 93
        1
176
     1
 44
0.0
176
     1
173
     0
176
     1
  0
VISUALSTYLE
  5
36
102
{ACAD_REACTORS
330
2A
102
}
102
{ACAD_XDICTIONARY
360
148
102
}
330
2A
100
AcDbVisualStyle
  2
Brighten
 70
    12
177
     2
291
     1
 71
     2
176
     1
 72
     2
176
     1
 73
     0
176
     1
 90
        0
176
     1
 40
0.6
176
     1
 41
30.0
176
     1
 62
     5
 63
     7
421
 16777215
176
     1
 74
     1
176
     1
 91
        4
176
     1
 64
     7
176
     1
 65
   257
176
     1
 75
     1
176
     1
175
     1
176
     1
 42
1.0
176
     1
 92
        8
176
     1
 66
     7
176
     1
 43
1.0
176
     1
 76
     1
176
     1
 77
     6
176
     1
 78
     2
176
     1
 67
     7
176
     1
 79
     5
176
     1
170
     0
176
     1
171
     0
176
     1
290
     0
176
     1
 93
        1
176
     1
 44
50.0
176
     1
173
     0
176
     1
  0
VISUALSTYLE
  5
3A
102
{ACAD_REACTORS
330
2A
102
}
102
{ACAD_XDICTIONARY
360
150
102
}
330
2A
100
AcDbVisualStyle
  2
ColorChange
 70
    16
177
     2
291
     1
 71
     2
176
     1
 72
     2
176
     1
 73
     3
176
     1
 90
        0
176
     1
 40
0.6
176
     1
 41
30.0
176
     1
 62
     5
 63
     8
421
  8421504
176
     1
 74
     1
176
     1
 91
        4
176
     1
 64
     7
176
     1
 65
   257
176
     1
 75
     1
176
     1
175
     1
176
     1
 42
1.0
176
     1
 92
        8
176
     1
 66
     8
424
  8421504
176
     1
 43
1.0
176
     1
 76
     1
176
     1
 77
     6
176
     1
 78
     2
176
     1
 67
     7
176
     1
 79
     5
176
     1
170
     0
176
     1
171
     0
176
     1
290
     0
176
     1
 93
        1
176
     1
 44
0.0
176
     1
173
     0
176
     1
  0
VISUALSTYLE
  5
34
102
{ACAD_REACTORS
330
2A
102
}
102
{ACAD_XDICTIONARY
360
144
102
}
330
2A
100
AcDbVisualStyle
  2
Conceptual
 70
     9
177
     2
291
     0
 71
     3
176
     1
 72
     2
176
     1
 73
     0
176
     1
 90
        0
176
     1
 40
0.6
176
     1
 41
30.0
176
     1
 62
     5
 63
     7
421
 16777215
176
     1
 74
     2
176
     1
 91
        2
176
     1
 64
     7
176
     1
 65
   257
176
     1
 75
     1
176
     1
175
     1
176
     1
 42
179.0
176
     1
 92
        8
176
     1
 66
     7
176
     1
 43
1.0
176
     1
 76
     1
176
     1
 77
     6
176
     1
 78
     2
176
     1
 67
     7
176
     1
 79
     3
176
     1
170
     0
176
     1
171
     0
176
     1
290
     0
176
     1
 93
        1
176
     1
 44
0.0
176
     1
173
     0
176
     1
  0
VISUALSTYLE
  5
35
102
{ACAD_REACTORS
330
2A
102
}
102
{ACAD_XDICTIONARY
360
146
102
}
330
2A
100
AcDbVisualStyle
  2
Dim
 70
    11
177
     2
291
     1
 71
     2
176
     1
 72
     2
176
     1
 73
     0
176
     1
 90
        0
176
     1
 40
0.6
176
     1
 41
30.0
176
     1
 62
     5
 63
     7
421
 16777215
176
     1
 74
     1
176
     1
 91
        4
176
     1
 64
     7
176
     1
 65
   257
176
     1
 75
     1
176
     1
175
     1
176
     1
 42
1.0
176
     1
 92
        8
176
     1
 66
     7
176
     1
 43
1.0
176
     1
 76
     1
176
     1
 77
     6
176
     1
 78
     2
176
     1
 67
     7
176
     1
 79
     5
176
     1
170
     0
176
     1
171
     0
176
     1
290
     0
176
     1
 93
        1
176
     1
 44
-50.0
176
     1
173
     0
176
     1
  0
VISUALSTYLE
  5
3D
102
{ACAD_REACTORS
330
2A
102
}
102
{ACAD_XDICTIONARY
360
156
102
}
330
2A
100
AcDbVisualStyle
  2
EdgeColorOff
 70
    22
177
     2
291
     1
 71
     2
176
     0
 72
     2
176
     0
 73
     0
176
     0
 90
        0
176
     0
 40
0.6
176
     0
 41
30.0
176
     0
 62
     5
 63
     7
421
 16777215
176
     0
 74
     1
176
     0
 91
        4
176
     0
 64
     7
176
     0
 65
   257
176
     0
 75
     1
176
     0
175
     1
176
     0
 42
1.0
176
     0
 92
        8
176
     2
 66
     7
176
     0
 43
1.0
176
     0
 76
     1
176
     0
 77
     6
176
     0
 78
     2
176
     0
 67
     7
176
     0
 79
     5
176
     0
170
     0
176
     0
171
     0
176
     0
290
     0
176
     0
 93
        1
176
     0
 44
0.0
176
     0
173
     0
176
     0
  0
VISUALSTYLE
  5
39
102
{ACAD_REACTORS
330
2A
102
}
102
{ACAD_XDICTIONARY
360
14E
102
}
330
2A
100
AcDbVisualStyle
  2
Facepattern
 70
    15
177
     2
291
     1
 71
     2
176
     1
 72
     2
176
     1
 73
     0
176
     1
 90
        0
176
     1
 40
0.6
176
     1
 41
30.0
176
     1
 62
     5
 63
     7
421
 16777215
176
     1
 74
     1
176
     1
 91
        4
176
     1
 64
     7
176
     1
 65
   257
176
     1
 75
     1
176
     1
175
     1
176
     1
 42
1.0
176
     1
 92
        8
176
     1
 66
     7
176
     1
 43
1.0
176
     1
 76
     1
176
     1
 77
     6
176
     1
 78
     2
176
     1
 67
     7
176
     1
 79
     5
176
     1
170
     0
176
     1
171
     0
176
     1
290
     0
176
     1
 93
        1
176
     1
 44
0.0
176
     1
173
     0
176
     1
  0
VISUALSTYLE
  5
2B
102
{ACAD_REACTORS
330
2A
102
}
102
{ACAD_XDICTIONARY
360
132
102
}
330
2A
100
AcDbVisualStyle
  2
Flat
 70
     0
177
     2
291
     1
 71
     2
176
     1
 72
     1
176
     1
 73
     1
176
     1
 90
        2
176
     1
 40
0.6
176
     1
 41
30.0
176
     1
 62
     5
 63
     7
421
 16777215
176
     1
 74
     0
176
     1
 91
        0
176
     1
 64
     7
176
     1
 65
   257
176
     1
 75
     1
176
     1
175
     1
176
     1
 42
1.0
176
     1
 92
        8
176
     1
 66
     7
176
     1
 43
1.0
176
     1
 76
     1
176
     1
 77
     6
176
     1
 78
     2
176
     1
 67
     7
176
     1
 79
     5
176
     1
170
     0
176
     1
171
     0
176
     1
290
     0
176
     1
 93
       13
176
     1
 44
0.0
176
     1
173
     0
176
     1
  0
VISUALSTYLE
  5
2C
102
{ACAD_REACTORS
330
2A
102
}
102
{ACAD_XDICTIONARY
360
134
102
}
330
2A
100
AcDbVisualStyle
  2
FlatWithEdges
 70
     1
177
     2
291
     1
 71
     2
176
     1
 72
     1
176
     1
 73
     1
176
     1
 90
        2
176
     1
 40
0.6
176
     1
 41
30.0
176
     1
 62
     5
 63
     7
421
 16777215
176
     1
 74
     1
176
     1
 91
        0
176
     1
 64
     7
176
     1
 65
   257
176
     1
 75
     1
176
     1
175
     1
176
     1
 42
1.0
176
     1
 92
        0
176
     1
 66
   257
176
     1
 43
1.0
176
     1
 76
     1
176
     1
 77
     6
176
     1
 78
     2
176
     1
 67
     7
176
     1
 79
     5
176
     1
170
     0
176
     1
171
     0
176
     1
290
     0
176
     1
 93
       13
176
     1
 44
0.0
176
     1
173
     0
176
     1
  0
VISUALSTYLE
  5
2D
102
{ACAD_REACTORS
330
2A
102
}
102
{ACAD_XDICTIONARY
360
136
102
}
330
2A
100
AcDbVisualStyle
  2
Gouraud
 70
     2
177
     2
291
     1
 71
     2
176
     1
 72
     2
176
     1
 73
     1
176
     1
 90
        2
176
     1
 40
0.6
176
     1
 41
30.0
176
     1
 62
     5
 63
     7
421
 16777215
176
     1
 74
     0
176
     1
 91
        0
176
     1
 64
     7
176
     1
 65
   257
176
     1
 75
     1
176
     1
175
     1
176
     1
 42
1.0
176
     1
 92
        0
176
     1
 66
     7
176
     1
 43
1.0
176
     1
 76
     1
176
     1
 77
     6
176
     1
 78
     2
176
     1
 67
     7
176
     1
 79
     5
176
     1
170
     0
176
     1
171
     0
176
     1
290
     0
176
     1
 93
       13
176
     1
 44
0.0
176
     1
173
     0
176
     1
  0
VISUALSTYLE
  5
2E
102
{ACAD_REACTORS
330
2A
102
}
102
{ACAD_XDICTIONARY
360
138
102
}
330
2A
100
AcDbVisualStyle
  2
GouraudWithEdges
 70
     3
177
     2
291
     1
 71
     2
176
     1
 72
     2
176
     1
 73
     1
176
     1
 90
        2
176
     1
 40
0.6
176
     1
 41
30.0
176
     1
 62
     5
 63
     7
421
 16777215
176
     1
 74
     1
176
     1
 91
        0
176
     1
 64
     7
176
     1
 65
   257
176
     1
 75
     1
176
     1
175
     1
176
     1
 42
1.0
176
     1
 92
        0
176
     1
 66
   257
176
     1
 43
1.0
176
     1
 76
     1
176
     1
 77
     6
176
     1
 78
     2
176
     1
 67
     7
176
     1
 79
     5
176
     1
170
     0
176
     1
171
     0
176
     1
290
     0
176
     1
 93
       13
176
     1
 44
0.0
176
     1
173
     0
176
     1
  0
VISUALSTYLE
  5
31
102
{ACAD_REACTORS
330
2A
102
}
102
{ACAD_XDICTIONARY
360
13E
102
}
330
2A
100
AcDbVisualStyle
  2
Hidden
 70
     6
177
     2
291
     0
 71
     1
176
     1
 72
     2
176
     1
 73
     2
176
     1
 90
        0
176
     1
 40
0.6
176
     1
 41
30.0
176
     1
 62
     5
 63
     7
421
 16777215
176
     1
 74
     2
176
     1
 91
        2
176
     1
 64
     7
176
     1
 65
   257
176
     1
 75
     2
176
     1
175
     1
176
     1
 42
40.0
176
     1
 92
        0
176
     1
 66
   257
176
     1
 43
1.0
176
     1
 76
     1
176
     1
 77
     6
176
     1
 78
     2
176
     1
 67
     7
176
     1
 79
     3
176
     1
170
     0
176
     1
171
     0
176
     1
290
     0
176
     1
 93
        1
176
     1
 44
0.0
176
     1
173
     0
176
     1
  0
VISUALSTYLE
  5
3B
102
{ACAD_REACTORS
330
2A
102
}
102
{ACAD_XDICTIONARY
360
152
102
}
330
2A
100
AcDbVisualStyle
  2
JitterOff
 70
    20
177
     2
291
     1
 71
     2
176
     0
 72
     2
176
     0
 73
     0
176
     0
 90
        0
176
     0
 40
0.6
176
     0
 41
30.0
176
     0
 62
     5
 63
     7
421
 16777215
176
     0
 74
     1
176
     0
 91
        4
176
     0
 64
     7
176
     0
 65
   257
176
     0
 75
     1
176
     0
175
     1
176
     0
 42
1.0
176
     0
 92
       10
176
     2
 66
     7
176
     0
 43
1.0
176
     0
 76
     1
176
     0
 77
     6
176
     0
 78
     2
176
     0
 67
     7
176
     0
 79
     5
176
     0
170
     0
176
     0
171
     0
176
     0
290
     0
176
     0
 93
        1
176
     0
 44
0.0
176
     0
173
     0
176
     0
  0
VISUALSTYLE
  5
38
102
{ACAD_REACTORS
330
2A
102
}
102
{ACAD_XDICTIONARY
360
14C
102
}
330
2A
100
AcDbVisualStyle
  2
Linepattern
 70
    14
177
     2
291
     1
 71
     2
176
     1
 72
     2
176
     1
 73
     0
176
     1
 90
        0
176
     1
 40
0.6
176
     1
 41
30.0
176
     1
 62
     5
 63
     7
421
 16777215
176
     1
 74
     1
176
     1
 91
        4
176
     1
 64
     7
176
     1
 65
   257
176
     1
 75
     7
176
     1
175
     7
176
     1
 42
1.0
176
     1
 92
        8
176
     1
 66
     7
176
     1
 43
1.0
176
     1
 76
     1
176
     1
 77
     6
176
     1
 78
     2
176
     1
 67
     7
176
     1
 79
     5
176
     1
170
     0
176
     1
171
     0
176
     1
290
     0
176
     1
 93
        1
176
     1
 44
0.0
176
     1
173
     0
176
     1
  0
VISUALSTYLE
  5
3C
102
{ACAD_REACTORS
330
2A
102
}
102
{ACAD_XDICTIONARY
360
154
102
}
330
2A
100
AcDbVisualStyle
  2
OverhangOff
 70
    21
177
     2
291
     1
 71
     2
176
     0
 72
     2
176
     0
 73
     0
176
     0
 90
        0
176
     0
 40
0.6
176
     0
 41
30.0
176
     0
 62
     5
 63
     7
421
 16777215
176
     0
 74
     1
176
     0
 91
        4
176
     0
 64
     7
176
     0
 65
   257
176
     0
 75
     1
176
     0
175
     1
176
     0
 42
1.0
176
     0
 92
        9
176
     2
 66
     7
176
     0
 43
1.0
176
     0
 76
     1
176
     0
 77
     6
176
     0
 78
     2
176
     0
 67
     7
176
     0
 79
     5
176
     0
170
     0
176
     0
171
     0
176
     0
290
     0
176
     0
 93
        1
176
     0
 44
0.0
176
     0
173
     0
176
     0
  0
VISUALSTYLE
  5
33
102
{ACAD_REACTORS
330
2A
102
}
102
{ACAD_XDICTIONARY
360
142
102
}
330
2A
100
AcDbVisualStyle
  2
Realistic
 70
     8
177
     2
291
     0
 71
     2
176
     1
 72
     3
176
     1
 73
     0
176
     1
 90
        2
176
     1
 40
0.6
176
     1
 41
30.0
176
     1
 62
     5
 63
     7
421
 16777215
176
     1
 74
     0
176
     1
 91
        0
176
     1
 64
     7
176
     1
 65
   257
176
     1
 75
     1
176
     1
175
     1
176
     1
 42
1.0
176
     1
 92
        8
176
     1
 66
   257
176
     1
 43
1.0
176
     1
 76
     1
176
     1
 77
     6
176
     1
 78
     2
176
     1
 67
     7
176
     1
 79
     3
176
     1
170
     0
176
     1
171
     0
176
     1
290
     0
176
     1
 93
       13
176
     1
 44
0.0
176
     1
173
     0
176
     1
  0
VISUALSTYLE
  5
42
102
{ACAD_REACTORS
330
2A
102
}
102
{ACAD_XDICTIONARY
360
160
102
}
330
2A
100
AcDbVisualStyle
  2
Shaded
 70
    27
177
     2
291
     0
 71
     2
176
     1
 72
     2
176
     1
 73
     1
176
     1
 90
        2
176
     1
 40
0.6
176
     1
 41
30.0
176
     1
 62
     5
 63
     7
421
 16777215
176
     1
 74
     0
176
     1
 91
        4
176
     1
 64
     7
176
     1
 65
   257
176
     1
 75
     1
176
     1
175
     1
176
     1
 42
1.0
176
     1
 92
        8
176
     1
 66
   257
176
     1
 43
1.0
176
     1
 76
     1
176
     1
 77
     6
176
     1
 78
     2
176
     1
 67
     8
425
  7895160
176
     1
 79
     3
176
     1
170
     0
176
     1
171
     0
176
     1
290
     0
176
     1
 93
        5
176
     1
 44
0.0
176
     1
173
     0
176
     1
  0
VISUALSTYLE
  5
41
102
{ACAD_REACTORS
330
2A
102
}
102
{ACAD_XDICTIONARY
360
15E
102
}
330
2A
100
AcDbVisualStyle
  2
Shaded with edges
 70
    26
177
     2
291
     0
 71
     2
176
     1
 72
     2
176
     1
 73
     1
176
     1
 90
        2
176
     1
 40
0.6
176
     1
 41
30.0
176
     1
 62
     5
 63
     7
421
 16777215
176
     1
 74
     1
176
     1
 91
       10
176
     1
 64
     7
176
     1
 65
   257
176
     1
 75
     2
176
     1
175
     1
176
     1
 42
1.0
176
     1
 92
        8
176
     1
 66
   257
176
     1
 43
1.0
176
     1
 76
     1
176
     1
 77
     6
176
     1
 78
     2
176
     1
 67
     7
176
     1
 79
     3
176
     1
170
     0
176
     1
171
     0
176
     1
290
     0
176
     1
 93
        5
176
     1
 44
0.0
176
     1
173
     0
176
     1
  0
VISUALSTYLE
  5
3E
102
{ACAD_REACTORS
330
2A
102
}
102
{ACAD_XDICTIONARY
360
158
102
}
330
2A
100
AcDbVisualStyle
  2
Shades of Gray
 70
    23
177
     2
291
     0
 71
     2
176
     1
 72
     2
176
     1
 73
     3
176
     1
 90
        0
176
     1
 40
0.6
176
     1
 41
30.0
176
     1
 62
     5
 63
     7
421
 16777215
176
     1
 74
     2
176
     1
 91
        2
176
     1
 64
     7
176
     1
 65
     7
176
     1
 75
     1
176
     1
175
     1
176
     1
 42
40.0
176
     1
 92
        8
176
     1
 66
     7
176
     1
 43
1.0
176
     1
 76
     1
176
     1
 77
     6
176
     1
 78
     2
176
     1
 67
     7
176
     1
 79
     3
176
     1
170
     0
176
     1
171
     0
176
     1
290
     0
176
     1
 93
        1
176
     1
 44
0.0
176
     1
173
     0
176
     1
  0
VISUALSTYLE
  5
3F
102
{ACAD_REACTORS
330
2A
102
}
102
{ACAD_XDICTIONARY
360
15A
102
}
330
2A
100
AcDbVisualStyle
  2
Sketchy
 70
    24
177
     2
291
     0
 71
     1
176
     1
 72
     2
176
     1
 73
     2
176
     1
 90
        0
176
     1
 40
0.6
176
     1
 41
30.0
176
     1
 62
     5
 63
     7
421
 16777215
176
     1
 74
     2
176
     1
 91
        2
176
     1
 64
     7
176
     1
 65
     7
176
     1
 75
     1
176
     1
175
     1
176
     1
 42
40.0
176
     1
 92
       11
176
     1
 66
     7
176
     1
 43
1.0
176
     1
 76
     1
176
     1
 77
     6
176
     1
 78
     2
176
     1
 67
     7
176
     1
 79
     6
176
     1
170
     0
176
     1
171
     0
176
     1
290
     0
176
     1
 93
        1
176
     1
 44
0.0
176
     1
173
     0
176
     1
  0
VISUALSTYLE
  5
37
102
{ACAD_REACTORS
330
2A
102
}
102
{ACAD_XDICTIONARY
360
14A
102
}
330
2A
100
AcDbVisualStyle
  2
Thicken
 70
    13
177
     2
291
     1
 71
     2
176
     1
 72
     2
176
     1
 73
     0
176
     1
 90
        0
176
     1
 40
0.6
176
     1
 41
30.0
176
     1
 62
     5
 63
     7
421
 16777215
176
     1
 74
     1
176
     1
 91
        4
176
     1
 64
     7
176
     1
 65
   257
176
     1
 75
     1
176
     1
175
     1
176
     1
 42
1.0
176
     1
 92
       12
176
     1
 66
     7
176
     1
 43
1.0
176
     1
 76
     1
176
     1
 77
     6
176
     1
 78
     2
176
     1
 67
     7
176
     1
 79
     5
176
     1
170
     0
176
     1
171
     0
176
     1
290
     0
176
     1
 93
        1
176
     1
 44
0.0
176
     1
173
     0
176
     1
  0
VISUALSTYLE
  5
30
102
{ACAD_REACTORS
330
2A
102
}
102
{ACAD_XDICTIONARY
360
13C
102
}
330
2A
100
AcDbVisualStyle
  2
Wireframe
 70
     5
177
     2
291
     0
 71
     0
176
     1
 72
     2
176
     1
 73
     0
176
     1
 90
        0
176
     1
 40
0.6
176
     1
 41
30.0
176
     1
 62
     5
 63
     7
421
 16777215
176
     1
 74
     1
176
     1
 91
        4
176
     1
 64
     7
176
     1
 65
   257
176
     1
 75
     1
176
     1
175
     1
176
     1
 42
1.0
176
     1
 92
        0
176
     1
 66
   257
176
     1
 43
1.0
176
     1
 76
     1
176
     1
 77
     6
176
     1
 78
     2
176
     1
 67
     7
176
     1
 79
     3
176
     1
170
     0
176
     1
171
     0
176
     1
290
     0
176
     1
 93
        1
176
     1
 44
0.0
176
     1
173
     0
176
     1
  0
VISUALSTYLE
  5
40
102
{ACAD_REACTORS
330
2A
102
}
102
{ACAD_XDICTIONARY
360
15C
102
}
330
2A
100
AcDbVisualStyle
  2
X-Ray
 70
    25
177
     2
291
     0
 71
     2
176
     1
 72
     2
176
     1
 73
     1
176
     1
 90
        1
176
     1
 40
0.5
176
     1
 41
30.0
176
     1
 62
     5
 63
     7
421
 16777215
176
     1
 74
     1
176
     1
 91
        0
176
     1
 64
     7
176
     1
 65
   257
176
     1
 75
     1
176
     1
175
     1
176
     1
 42
1.0
176
     1
 92
        8
176
     1
 66
     7
176
     1
 43
1.0
176
     1
 76
     1
176
     1
 77
     6
176
     1
 78
     2
176
     1
 67
     7
176
     1
 79
     3
176
     1
170
     0
176
     1
171
     0
176
     1
290
     0
176
     1
 93
       13
176
     1
 44
0.0
176
     1
173
     0
176
     1
  0
DICTIONARYVAR
  5
131
102
{ACAD_REACTORS
330
130
102
}
330
130
100
DictionaryVariables
280
     0
  1
1:1
  0
DICTIONARYVAR
  5
16B
102
{ACAD_REACTORS
330
130
102
}
330
130
100
DictionaryVariables
280
     0
  1
3.500000
  0
DICTIONARYVAR
  5
16C
102
{ACAD_REACTORS
330
130
102
}
330
130
100
DictionaryVariables
280
     0
  1
acadiso.lin
  0
DICTIONARYVAR
  5
167
102
{ACAD_REACTORS
330
130
102
}
330
130
100
DictionaryVariables
280
     0
  1
Standard
  0
DICTIONARYVAR
  5
166
102
{ACAD_REACTORS
330
130
102
}
330
130
100
DictionaryVariables
280
     0
  1
Standard
  0
DICTIONARYVAR
  5
16A
102
{ACAD_REACTORS
330
130
102
}
330
130
100
DictionaryVariables
280
     0
  1
0
  0
DICTIONARY
  5
162
330
6A
100
AcDbDictionary
280
     1
281
     1
  3
ACAD_ROUNDTRIP_2008_TABLESTYLE_CELLSTYLEMAP
360
163
  0
DICTIONARY
  5
13A
330
2F
100
AcDbDictionary
280
     1
281
     1
  3
ACAD_XREC_ROUNDTRIP
360
13B
  0
DICTIONARY
  5
140
330
32
100
AcDbDictionary
280
     1
281
     1
  3
ACAD_XREC_ROUNDTRIP
360
141
  0
DICTIONARY
  5
148
330
36
100
AcDbDictionary
280
     1
281
     1
  3
ACAD_XREC_ROUNDTRIP
360
149
  0
DICTIONARY
  5
150
330
3A
100
AcDbDictionary
280
     1
281
     1
  3
ACAD_XREC_ROUNDTRIP
360
151
  0
DICTIONARY
  5
144
330
34
100
AcDbDictionary
280
     1
281
     1
  3
ACAD_XREC_ROUNDTRIP
360
145
  0
DICTIONARY
  5
146
330
35
100
AcDbDictionary
280
     1
281
     1
  3
ACAD_XREC_ROUNDTRIP
360
147
  0
DICTIONARY
  5
156
330
3D
100
AcDbDictionary
280
     1
281
     1
  3
ACAD_XREC_ROUNDTRIP
360
157
  0
DICTIONARY
  5
14E
330
39
100
AcDbDictionary
280
     1
281
     1
  3
ACAD_XREC_ROUNDTRIP
360
14F
  0
DICTIONARY
  5
132
330
2B
100
AcDbDictionary
280
     1
281
     1
  3
ACAD_XREC_ROUNDTRIP
360
133
  0
DICTIONARY
  5
134
330
2C
100
AcDbDictionary
280
     1
281
     1
  3
ACAD_XREC_ROUNDTRIP
360
135
  0
DICTIONARY
  5
136
330
2D
100
AcDbDictionary
280
     1
281
     1
  3
ACAD_XREC_ROUNDTRIP
360
137
  0
DICTIONARY
  5
138
330
2E
100
AcDbDictionary
280
     1
281
     1
  3
ACAD_XREC_ROUNDTRIP
360
139
  0
DICTIONARY
  5
13E
330
31
100
AcDbDictionary
280
     1
281
     1
  3
ACAD_XREC_ROUNDTRIP
360
13F
  0
DICTIONARY
  5
152
330
3B
100
AcDbDictionary
280
     1
281
     1
  3
ACAD_XREC_ROUNDTRIP
360
153
  0
DICTIONARY
  5
14C
330
38
100
AcDbDictionary
280
     1
281
     1
  3
ACAD_XREC_ROUNDTRIP
360
14D
  0
DICTIONARY
  5
154
330
3C
100
AcDbDictionary
280
     1
281
     1
  3
ACAD_XREC_ROUNDTRIP
360
155
  0
DICTIONARY
  5
142
330
33
100
AcDbDictionary
280
     1
281
     1
  3
ACAD_XREC_ROUNDTRIP
360
143
  0
DICTIONARY
  5
160
330
42
100
AcDbDictionary
280
     1
281
     1
  3
ACAD_XREC_ROUNDTRIP
360
161
  0
DICTIONARY
  5
15E
330
41
100
AcDbDictionary
280
     1
281
     1
  3
ACAD_XREC_ROUNDTRIP
360
15F
  0
DICTIONARY
  5
158
330
3E
100
AcDbDictionary
280
     1
281
     1
  3
ACAD_XREC_ROUNDTRIP
360
159
  0
DICTIONARY
  5
15A
330
3F
100
AcDbDictionary
280
     1
281
     1
  3
ACAD_XREC_ROUNDTRIP
360
15B
  0
DICTIONARY
  5
14A
330
37
100
AcDbDictionary
280
     1
281
     1
  3
ACAD_XREC_ROUNDTRIP
360
14B
  0
DICTIONARY
  5
13C
330
30
100
AcDbDictionary
280
     1
281
     1
  3
ACAD_XREC_ROUNDTRIP
360
13D
  0
DICTIONARY
  5
15C
330
40
100
AcDbDictionary
280
     1
281
     1
  3
ACAD_XREC_ROUNDTRIP
360
15D
  0
CELLSTYLEMAP
  5
163
102
{ACAD_REACTORS
330
162
102
}
330
162
100
AcDbCellStyleMap
 90
        3
300
CELLSTYLE
  1
TABLEFORMAT_BEGIN
 90
        5
170
     1
 91
        0
 92
    32768
 62
   257
 93
        1
300
CONTENTFORMAT
  1
CONTENTFORMAT_BEGIN
 90
        0
 91
        0
 92
        4
 93
        0
300

 40
0.0
140
1.0
 94
        5
 62
     0
340
11
144
6.0
309
CONTENTFORMAT_END
171
     1
301
MARGIN
  1
CELLMARGIN_BEGIN
 40
1.5
 40
1.5
 40
1.5
 40
1.5
 40
1.5
 40
1.5
309
CELLMARGIN_END
 94
        6
 95
        1
302
GRIDFORMAT
  1
GRIDFORMAT_BEGIN
 90
        0
 91
        1
 62
     0
 92
       -2
340
14
 93
        0
 40
0.045
309
GRIDFORMAT_END
 95
        2
302
GRIDFORMAT
  1
GRIDFORMAT_BEGIN
 90
        0
 91
        1
 62
     0
 92
       -2
340
14
 93
        0
 40
0.045
309
GRIDFORMAT_END
 95
        4
302
GRIDFORMAT
  1
GRIDFORMAT_BEGIN
 90
        0
 91
        1
 62
     0
 92
       -2
340
14
 93
        0
 40
0.045
309
GRIDFORMAT_END
 95
        8
302
GRIDFORMAT
  1
GRIDFORMAT_BEGIN
 90
        0
 91
        1
 62
     0
 92
       -2
340
14
 93
        0
 40
0.045
309
GRIDFORMAT_END
 95
       16
302
GRIDFORMAT
  1
GRIDFORMAT_BEGIN
 90
        0
 91
        1
 62
     0
 92
       -2
340
14
 93
        0
 40
0.045
309
GRIDFORMAT_END
 95
       32
302
GRIDFORMAT
  1
GRIDFORMAT_BEGIN
 90
        0
 91
        1
 62
     0
 92
       -2
340
14
 93
        0
 40
0.045
309
GRIDFORMAT_END
309
TABLEFORMAT_END
  1
CELLSTYLE_BEGIN
 90
        1
 91
        1
300
_TITLE
309
CELLSTYLE_END
300
CELLSTYLE
  1
TABLEFORMAT_BEGIN
 90
        5
170
     1
 91
        0
 92
        0
 62
   257
 93
        1
300
CONTENTFORMAT
  1
CONTENTFORMAT_BEGIN
 90
        0
 91
        0
 92
        4
 93
        0
300

 40
0.0
140
1.0
 94
        5
 62
     0
340
11
144
4.5
309
CONTENTFORMAT_END
171
     1
301
MARGIN
  1
CELLMARGIN_BEGIN
 40
1.5
 40
1.5
 40
1.5
 40
1.5
 40
1.5
 40
1.5
309
CELLMARGIN_END
 94
        6
 95
        1
302
GRIDFORMAT
  1
GRIDFORMAT_BEGIN
 90
        0
 91
        1
 62
     0
 92
       -2
340
14
 93
        0
 40
0.045
309
GRIDFORMAT_END
 95
        2
302
GRIDFORMAT
  1
GRIDFORMAT_BEGIN
 90
        0
 91
        1
 62
     0
 92
       -2
340
14
 93
        0
 40
0.045
309
GRIDFORMAT_END
 95
        4
302
GRIDFORMAT
  1
GRIDFORMAT_BEGIN
 90
        0
 91
        1
 62
     0
 92
       -2
340
14
 93
        0
 40
0.045
309
GRIDFORMAT_END
 95
        8
302
GRIDFORMAT
  1
GRIDFORMAT_BEGIN
 90
        0
 91
        1
 62
     0
 92
       -2
340
14
 93
        0
 40
0.045
309
GRIDFORMAT_END
 95
       16
302
GRIDFORMAT
  1
GRIDFORMAT_BEGIN
 90
        0
 91
        1
 62
     0
 92
       -2
340
14
 93
        0
 40
0.045
309
GRIDFORMAT_END
 95
       32
302
GRIDFORMAT
  1
GRIDFORMAT_BEGIN
 90
        0
 91
        1
 62
     0
 92
       -2
340
14
 93
        0
 40
0.045
309
GRIDFORMAT_END
309
TABLEFORMAT_END
  1
CELLSTYLE_BEGIN
 90
        2
 91
        1
300
_HEADER
309
CELLSTYLE_END
300
CELLSTYLE
  1
TABLEFORMAT_BEGIN
 90
        5
170
     1
 91
        0
 92
        0
 62
   257
 93
        1
300
CONTENTFORMAT
  1
CONTENTFORMAT_BEGIN
 90
        0
 91
        0
 92
        4
 93
        0
300

 40
0.0
140
1.0
 94
        2
 62
     0
340
11
144
4.5
309
CONTENTFORMAT_END
171
     1
301
MARGIN
  1
CELLMARGIN_BEGIN
 40
1.5
 40
1.5
 40
1.5
 40
1.5
 40
1.5
 40
1.5
309
CELLMARGIN_END
 94
        6
 95
        1
302
GRIDFORMAT
  1
GRIDFORMAT_BEGIN
 90
        0
 91
        1
 62
     0
 92
       -2
340
14
 93
        0
 40
0.045
309
GRIDFORMAT_END
 95
        2
302
GRIDFORMAT
  1
GRIDFORMAT_BEGIN
 90
        0
 91
        1
 62
     0
 92
       -2
340
14
 93
        0
 40
0.045
309
GRIDFORMAT_END
 95
        4
302
GRIDFORMAT
  1
GRIDFORMAT_BEGIN
 90
        0
 91
        1
 62
     0
 92
       -2
340
14
 93
        0
 40
0.045
309
GRIDFORMAT_END
 95
        8
302
GRIDFORMAT
  1
GRIDFORMAT_BEGIN
 90
        0
 91
        1
 62
     0
 92
       -2
340
14
 93
        0
 40
0.045
309
GRIDFORMAT_END
 95
       16
302
GRIDFORMAT
  1
GRIDFORMAT_BEGIN
 90
        0
 91
        1
 62
     0
 92
       -2
340
14
 93
        0
 40
0.045
309
GRIDFORMAT_END
 95
       32
302
GRIDFORMAT
  1
GRIDFORMAT_BEGIN
 90
        0
 91
        1
 62
     0
 92
       -2
340
14
 93
        0
 40
0.045
309
GRIDFORMAT_END
309
TABLEFORMAT_END
  1
CELLSTYLE_BEGIN
 90
        3
 91
        2
300
_DATA
309
CELLSTYLE_END
  0
XRECORD
  5
13B
102
{ACAD_REACTORS
330
13A
102
}
330
13A
100
AcDbXrecord
280
     1
102
RTVSPost2010Prop28
280
     1
102
RTVSPost2010PropOp28
 70
     1
102
RTVSPost2010Prop29
280
     1
102
RTVSPost2010PropOp29
 70
     1
102
RTVSPost2010Prop30
280
     0
102
RTVSPost2010PropOp30
 70
     1
102
RTVSPost2010Prop31
280
     0
102
RTVSPost2010PropOp31
 70
     1
102
RTVSPost2010Prop32
280
     0
102
RTVSPost2010PropOp32
 70
     1
102
RTVSPost2010Prop33
280
     0
102
RTVSPost2010PropOp33
 70
     1
102
RTVSPost2010Prop34
280
     0
102
RTVSPost2010PropOp34
 70
     1
102
RTVSPost2010Prop35
280
     0
102
RTVSPost2010PropOp35
 70
     1
102
RTVSPost2010Prop36
280
     0
102
RTVSPost2010PropOp36
 70
     1
102
RTVSPost2010Prop37
 90
       50
102
RTVSPost2010PropOp37
 70
     1
102
RTVSPost2010Prop38
140
0.0
102
RTVSPost2010PropOp38
 70
     1
102
RTVSPost2010Prop39
140
1.0
102
RTVSPost2010PropOp39
 70
     1
102
RTVSPost2010Prop40
 90
        0
102
RTVSPost2010PropOp40
 70
     1
102
RTVSPost2010Prop41ColorIndex
 90
       18
102
RTVSPost2010Prop41ColorRGB
 90
        0
102
RTVSPost2010PropOp41
 70
     1
102
RTVSPost2010Prop42
 90
       50
102
RTVSPost2010PropOp42
 70
     1
102
RTVSPost2010Prop43
 90
        3
102
RTVSPost2010PropOp43
 70
     1
102
RTVSPost2010Prop44ColorIndex
 90
        5
102
RTVSPost2010Prop44ColorRGB
 90
      255
102
RTVSPost2010PropOp44
 70
     1
102
RTVSPost2010Prop45
280
     0
102
RTVSPost2010PropOp45
 70
     1
102
RTVSPost2010Prop46
 90
       50
102
RTVSPost2010PropOp46
 70
     1
102
RTVSPost2010Prop47
 90
       50
102
RTVSPost2010PropOp47
 70
     1
102
RTVSPost2010Prop48
 90
       50
102
RTVSPost2010PropOp48
 70
     1
102
RTVSPost2010Prop49
280
     0
102
RTVSPost2010PropOp49
 70
     1
102
RTVSPost2010Prop50
 90
       50
102
RTVSPost2010PropOp50
 70
     1
102
RTVSPost2010Prop51ColorIndex
 90
      256
102
RTVSPost2010Prop51ColorRGB
 90
-16777216
102
RTVSPost2010PropOp51
 70
     0
102
RTVSPost2010Prop52
140
1.0
102
RTVSPost2010PropOp52
 70
     0
102
RTVSPost2010Prop53
 90
        2
102
RTVSPost2010PropOp53
 70
     1
102
RTVSPost2010Prop54
  1
strokes_ogs.tif
102
RTVSPost2010PropOp54
 70
     1
102
RTVSPost2010Prop55
280
     0
102
RTVSPost2010PropOp55
 70
     1
102
RTVSPost2010Prop56
140
1.0
102
RTVSPost2010PropOp56
 70
     1
102
RTVSPost2010Prop57
140
1.0
102
RTVSPost2010PropOp57
 70
     1
  0
XRECORD
  5
141
102
{ACAD_REACTORS
330
140
102
}
330
140
100
AcDbXrecord
280
     1
102
RTVSPost2010Prop28
280
     0
102
RTVSPost2010PropOp28
 70
     1
102
RTVSPost2010Prop29
280
     1
102
RTVSPost2010PropOp29
 70
     1
102
RTVSPost2010Prop30
280
     1
102
RTVSPost2010PropOp30
 70
     1
102
RTVSPost2010Prop31
280
     0
102
RTVSPost2010PropOp31
 70
     1
102
RTVSPost2010Prop32
280
     0
102
RTVSPost2010PropOp32
 70
     1
102
RTVSPost2010Prop33
280
     0
102
RTVSPost2010PropOp33
 70
     1
102
RTVSPost2010Prop34
280
     0
102
RTVSPost2010PropOp34
 70
     1
102
RTVSPost2010Prop35
280
     0
102
RTVSPost2010PropOp35
 70
     1
102
RTVSPost2010Prop36
280
     0
102
RTVSPost2010PropOp36
 70
     1
102
RTVSPost2010Prop37
 90
       50
102
RTVSPost2010PropOp37
 70
     1
102
RTVSPost2010Prop38
140
0.0
102
RTVSPost2010PropOp38
 70
     1
102
RTVSPost2010Prop39
140
1.0
102
RTVSPost2010PropOp39
 70
     1
102
RTVSPost2010Prop40
 90
        0
102
RTVSPost2010PropOp40
 70
     1
102
RTVSPost2010Prop41ColorIndex
 90
       18
102
RTVSPost2010Prop41ColorRGB
 90
        0
102
RTVSPost2010PropOp41
 70
     1
102
RTVSPost2010Prop42
 90
       50
102
RTVSPost2010PropOp42
 70
     1
102
RTVSPost2010Prop43
 90
        3
102
RTVSPost2010PropOp43
 70
     1
102
RTVSPost2010Prop44ColorIndex
 90
        5
102
RTVSPost2010Prop44ColorRGB
 90
      255
102
RTVSPost2010PropOp44
 70
     1
102
RTVSPost2010Prop45
280
     0
102
RTVSPost2010PropOp45
 70
     1
102
RTVSPost2010Prop46
 90
       50
102
RTVSPost2010PropOp46
 70
     1
102
RTVSPost2010Prop47
 90
       50
102
RTVSPost2010PropOp47
 70
     1
102
RTVSPost2010Prop48
 90
       50
102
RTVSPost2010PropOp48
 70
     1
102
RTVSPost2010Prop49
280
     0
102
RTVSPost2010PropOp49
 70
     1
102
RTVSPost2010Prop50
 90
       50
102
RTVSPost2010PropOp50
 70
     1
102
RTVSPost2010Prop51ColorIndex
 90
      256
102
RTVSPost2010Prop51ColorRGB
 90
-16777216
102
RTVSPost2010PropOp51
 70
     0
102
RTVSPost2010Prop52
140
1.0
102
RTVSPost2010PropOp52
 70
     0
102
RTVSPost2010Prop53
 90
        2
102
RTVSPost2010PropOp53
 70
     1
102
RTVSPost2010Prop54
  1
strokes_ogs.tif
102
RTVSPost2010PropOp54
 70
     1
102
RTVSPost2010Prop55
280
     0
102
RTVSPost2010PropOp55
 70
     1
102
RTVSPost2010Prop56
140
1.0
102
RTVSPost2010PropOp56
 70
     1
102
RTVSPost2010Prop57
140
1.0
102
RTVSPost2010PropOp57
 70
     1
  0
XRECORD
  5
149
102
{ACAD_REACTORS
330
148
102
}
330
148
100
AcDbXrecord
280
     1
102
RTVSPost2010Prop28
280
     0
102
RTVSPost2010PropOp28
 70
     1
102
RTVSPost2010Prop29
280
     1
102
RTVSPost2010PropOp29
 70
     1
102
RTVSPost2010Prop30
280
     1
102
RTVSPost2010PropOp30
 70
     1
102
RTVSPost2010Prop31
280
     0
102
RTVSPost2010PropOp31
 70
     1
102
RTVSPost2010Prop32
280
     0
102
RTVSPost2010PropOp32
 70
     1
102
RTVSPost2010Prop33
280
     0
102
RTVSPost2010PropOp33
 70
     1
102
RTVSPost2010Prop34
280
     0
102
RTVSPost2010PropOp34
 70
     1
102
RTVSPost2010Prop35
280
     0
102
RTVSPost2010PropOp35
 70
     1
102
RTVSPost2010Prop36
280
     0
102
RTVSPost2010PropOp36
 70
     1
102
RTVSPost2010Prop37
 90
       50
102
RTVSPost2010PropOp37
 70
     1
102
RTVSPost2010Prop38
140
0.0
102
RTVSPost2010PropOp38
 70
     1
102
RTVSPost2010Prop39
140
1.0
102
RTVSPost2010PropOp39
 70
     1
102
RTVSPost2010Prop40
 90
        0
102
RTVSPost2010PropOp40
 70
     1
102
RTVSPost2010Prop41ColorIndex
 90
       18
102
RTVSPost2010Prop41ColorRGB
 90
        0
102
RTVSPost2010PropOp41
 70
     1
102
RTVSPost2010Prop42
 90
       50
102
RTVSPost2010PropOp42
 70
     1
102
RTVSPost2010Prop43
 90
        3
102
RTVSPost2010PropOp43
 70
     1
102
RTVSPost2010Prop44ColorIndex
 90
        5
102
RTVSPost2010Prop44ColorRGB
 90
      255
102
RTVSPost2010PropOp44
 70
     1
102
RTVSPost2010Prop45
280
     0
102
RTVSPost2010PropOp45
 70
     1
102
RTVSPost2010Prop46
 90
       50
102
RTVSPost2010PropOp46
 70
     1
102
RTVSPost2010Prop47
 90
       50
102
RTVSPost2010PropOp47
 70
     1
102
RTVSPost2010Prop48
 90
       50
102
RTVSPost2010PropOp48
 70
     1
102
RTVSPost2010Prop49
280
     0
102
RTVSPost2010PropOp49
 70
     1
102
RTVSPost2010Prop50
 90
       50
102
RTVSPost2010PropOp50
 70
     1
102
RTVSPost2010Prop51ColorIndex
 90
      256
102
RTVSPost2010Prop51ColorRGB
 90
-16777216
102
RTVSPost2010PropOp51
 70
     0
102
RTVSPost2010Prop52
140
1.0
102
RTVSPost2010PropOp52
 70
     0
102
RTVSPost2010Prop53
 90
        2
102
RTVSPost2010PropOp53
 70
     1
102
RTVSPost2010Prop54
  1
strokes_ogs.tif
102
RTVSPost2010PropOp54
 70
     1
102
RTVSPost2010Prop55
280
     0
102
RTVSPost2010PropOp55
 70
     1
102
RTVSPost2010Prop56
140
1.0
102
RTVSPost2010PropOp56
 70
     1
102
RTVSPost2010Prop57
140
1.0
102
RTVSPost2010PropOp57
 70
     1
  0
XRECORD
  5
151
102
{ACAD_REACTORS
330
150
102
}
330
150
100
AcDbXrecord
280
     1
102
RTVSPost2010Prop28
280
     0
102
RTVSPost2010PropOp28
 70
     1
102
RTVSPost2010Prop29
280
     1
102
RTVSPost2010PropOp29
 70
     1
102
RTVSPost2010Prop30
280
     1
102
RTVSPost2010PropOp30
 70
     1
102
RTVSPost2010Prop31
280
     0
102
RTVSPost2010PropOp31
 70
     1
102
RTVSPost2010Prop32
280
     0
102
RTVSPost2010PropOp32
 70
     1
102
RTVSPost2010Prop33
280
     0
102
RTVSPost2010PropOp33
 70
     1
102
RTVSPost2010Prop34
280
     0
102
RTVSPost2010PropOp34
 70
     1
102
RTVSPost2010Prop35
280
     0
102
RTVSPost2010PropOp35
 70
     1
102
RTVSPost2010Prop36
280
     0
102
RTVSPost2010PropOp36
 70
     1
102
RTVSPost2010Prop37
 90
       50
102
RTVSPost2010PropOp37
 70
     1
102
RTVSPost2010Prop38
140
0.0
102
RTVSPost2010PropOp38
 70
     1
102
RTVSPost2010Prop39
140
1.0
102
RTVSPost2010PropOp39
 70
     1
102
RTVSPost2010Prop40
 90
        0
102
RTVSPost2010PropOp40
 70
     1
102
RTVSPost2010Prop41ColorIndex
 90
       18
102
RTVSPost2010Prop41ColorRGB
 90
        0
102
RTVSPost2010PropOp41
 70
     1
102
RTVSPost2010Prop42
 90
       50
102
RTVSPost2010PropOp42
 70
     1
102
RTVSPost2010Prop43
 90
        3
102
RTVSPost2010PropOp43
 70
     1
102
RTVSPost2010Prop44ColorIndex
 90
        5
102
RTVSPost2010Prop44ColorRGB
 90
      255
102
RTVSPost2010PropOp44
 70
     1
102
RTVSPost2010Prop45
280
     0
102
RTVSPost2010PropOp45
 70
     1
102
RTVSPost2010Prop46
 90
       50
102
RTVSPost2010PropOp46
 70
     1
102
RTVSPost2010Prop47
 90
       50
102
RTVSPost2010PropOp47
 70
     1
102
RTVSPost2010Prop48
 90
       50
102
RTVSPost2010PropOp48
 70
     1
102
RTVSPost2010Prop49
280
     0
102
RTVSPost2010PropOp49
 70
     1
102
RTVSPost2010Prop50
 90
       50
102
RTVSPost2010PropOp50
 70
     1
102
RTVSPost2010Prop51ColorIndex
 90
      256
102
RTVSPost2010Prop51ColorRGB
 90
-16777216
102
RTVSPost2010PropOp51
 70
     0
102
RTVSPost2010Prop52
140
1.0
102
RTVSPost2010PropOp52
 70
     0
102
RTVSPost2010Prop53
 90
        2
102
RTVSPost2010PropOp53
 70
     1
102
RTVSPost2010Prop54
  1
strokes_ogs.tif
102
RTVSPost2010PropOp54
 70
     1
102
RTVSPost2010Prop55
280
     0
102
RTVSPost2010PropOp55
 70
     1
102
RTVSPost2010Prop56
140
1.0
102
RTVSPost2010PropOp56
 70
     1
102
RTVSPost2010Prop57
140
1.0
102
RTVSPost2010PropOp57
 70
     1
  0
XRECORD
  5
145
102
{ACAD_REACTORS
330
144
102
}
330
144
100
AcDbXrecord
280
     1
102
RTVSPost2010Prop28
280
     0
102
RTVSPost2010PropOp28
 70
     1
102
RTVSPost2010Prop29
280
     1
102
RTVSPost2010PropOp29
 70
     1
102
RTVSPost2010Prop30
280
     1
102
RTVSPost2010PropOp30
 70
     1
102
RTVSPost2010Prop31
280
     0
102
RTVSPost2010PropOp31
 70
     1
102
RTVSPost2010Prop32
280
     0
102
RTVSPost2010PropOp32
 70
     1
102
RTVSPost2010Prop33
280
     0
102
RTVSPost2010PropOp33
 70
     1
102
RTVSPost2010Prop34
280
     0
102
RTVSPost2010PropOp34
 70
     1
102
RTVSPost2010Prop35
280
     0
102
RTVSPost2010PropOp35
 70
     1
102
RTVSPost2010Prop36
280
     0
102
RTVSPost2010PropOp36
 70
     1
102
RTVSPost2010Prop37
 90
       50
102
RTVSPost2010PropOp37
 70
     1
102
RTVSPost2010Prop38
140
0.0
102
RTVSPost2010PropOp38
 70
     1
102
RTVSPost2010Prop39
140
1.0
102
RTVSPost2010PropOp39
 70
     1
102
RTVSPost2010Prop40
 90
        0
102
RTVSPost2010PropOp40
 70
     1
102
RTVSPost2010Prop41ColorIndex
 90
       18
102
RTVSPost2010Prop41ColorRGB
 90
        0
102
RTVSPost2010PropOp41
 70
     1
102
RTVSPost2010Prop42
 90
       50
102
RTVSPost2010PropOp42
 70
     1
102
RTVSPost2010Prop43
 90
        3
102
RTVSPost2010PropOp43
 70
     1
102
RTVSPost2010Prop44ColorIndex
 90
        5
102
RTVSPost2010Prop44ColorRGB
 90
      255
102
RTVSPost2010PropOp44
 70
     1
102
RTVSPost2010Prop45
280
     0
102
RTVSPost2010PropOp45
 70
     1
102
RTVSPost2010Prop46
 90
       50
102
RTVSPost2010PropOp46
 70
     1
102
RTVSPost2010Prop47
 90
       50
102
RTVSPost2010PropOp47
 70
     1
102
RTVSPost2010Prop48
 90
       50
102
RTVSPost2010PropOp48
 70
     1
102
RTVSPost2010Prop49
280
     0
102
RTVSPost2010PropOp49
 70
     1
102
RTVSPost2010Prop50
 90
       50
102
RTVSPost2010PropOp50
 70
     1
102
RTVSPost2010Prop51ColorIndex
 90
      256
102
RTVSPost2010Prop51ColorRGB
 90
-16777216
102
RTVSPost2010PropOp51
 70
     0
102
RTVSPost2010Prop52
140
1.0
102
RTVSPost2010PropOp52
 70
     0
102
RTVSPost2010Prop53
 90
        2
102
RTVSPost2010PropOp53
 70
     1
102
RTVSPost2010Prop54
  1
strokes_ogs.tif
102
RTVSPost2010PropOp54
 70
     1
102
RTVSPost2010Prop55
280
     0
102
RTVSPost2010PropOp55
 70
     1
102
RTVSPost2010Prop56
140
1.0
102
RTVSPost2010PropOp56
 70
     1
102
RTVSPost2010Prop57
140
1.0
102
RTVSPost2010PropOp57
 70
     1
  0
XRECORD
  5
147
102
{ACAD_REACTORS
330
146
102
}
330
146
100
AcDbXrecord
280
     1
102
RTVSPost2010Prop28
280
     0
102
RTVSPost2010PropOp28
 70
     1
102
RTVSPost2010Prop29
280
     1
102
RTVSPost2010PropOp29
 70
     1
102
RTVSPost2010Prop30
280
     1
102
RTVSPost2010PropOp30
 70
     1
102
RTVSPost2010Prop31
280
     0
102
RTVSPost2010PropOp31
 70
     1
102
RTVSPost2010Prop32
280
     0
102
RTVSPost2010PropOp32
 70
     1
102
RTVSPost2010Prop33
280
     0
102
RTVSPost2010PropOp33
 70
     1
102
RTVSPost2010Prop34
280
     0
102
RTVSPost2010PropOp34
 70
     1
102
RTVSPost2010Prop35
280
     0
102
RTVSPost2010PropOp35
 70
     1
102
RTVSPost2010Prop36
280
     0
102
RTVSPost2010PropOp36
 70
     1
102
RTVSPost2010Prop37
 90
       50
102
RTVSPost2010PropOp37
 70
     1
102
RTVSPost2010Prop38
140
0.0
102
RTVSPost2010PropOp38
 70
     1
102
RTVSPost2010Prop39
140
1.0
102
RTVSPost2010PropOp39
 70
     1
102
RTVSPost2010Prop40
 90
        0
102
RTVSPost2010PropOp40
 70
     1
102
RTVSPost2010Prop41ColorIndex
 90
       18
102
RTVSPost2010Prop41ColorRGB
 90
        0
102
RTVSPost2010PropOp41
 70
     1
102
RTVSPost2010Prop42
 90
       50
102
RTVSPost2010PropOp42
 70
     1
102
RTVSPost2010Prop43
 90
        3
102
RTVSPost2010PropOp43
 70
     1
102
RTVSPost2010Prop44ColorIndex
 90
        5
102
RTVSPost2010Prop44ColorRGB
 90
      255
102
RTVSPost2010PropOp44
 70
     1
102
RTVSPost2010Prop45
280
     0
102
RTVSPost2010PropOp45
 70
     1
102
RTVSPost2010Prop46
 90
       50
102
RTVSPost2010PropOp46
 70
     1
102
RTVSPost2010Prop47
 90
       50
102
RTVSPost2010PropOp47
 70
     1
102
RTVSPost2010Prop48
 90
       50
102
RTVSPost2010PropOp48
 70
     1
102
RTVSPost2010Prop49
280
     0
102
RTVSPost2010PropOp49
 70
     1
102
RTVSPost2010Prop50
 90
       50
102
RTVSPost2010PropOp50
 70
     1
102
RTVSPost2010Prop51ColorIndex
 90
      256
102
RTVSPost2010Prop51ColorRGB
 90
-16777216
102
RTVSPost2010PropOp51
 70
     0
102
RTVSPost2010Prop52
140
1.0
102
RTVSPost2010PropOp52
 70
     0
102
RTVSPost2010Prop53
 90
        2
102
RTVSPost2010PropOp53
 70
     1
102
RTVSPost2010Prop54
  1
strokes_ogs.tif
102
RTVSPost2010PropOp54
 70
     1
102
RTVSPost2010Prop55
280
     0
102
RTVSPost2010PropOp55
 70
     1
102
RTVSPost2010Prop56
140
1.0
102
RTVSPost2010PropOp56
 70
     1
102
RTVSPost2010Prop57
140
1.0
102
RTVSPost2010PropOp57
 70
     1
  0
XRECORD
  5
157
102
{ACAD_REACTORS
330
156
102
}
330
156
100
AcDbXrecord
280
     1
102
RTVSPost2010Prop28
280
     0
102
RTVSPost2010PropOp28
 70
     0
102
RTVSPost2010Prop29
280
     1
102
RTVSPost2010PropOp29
 70
     0
102
RTVSPost2010Prop30
280
     1
102
RTVSPost2010PropOp30
 70
     0
102
RTVSPost2010Prop31
280
     0
102
RTVSPost2010PropOp31
 70
     0
102
RTVSPost2010Prop32
280
     0
102
RTVSPost2010PropOp32
 70
     0
102
RTVSPost2010Prop33
280
     0
102
RTVSPost2010PropOp33
 70
     0
102
RTVSPost2010Prop34
280
     0
102
RTVSPost2010PropOp34
 70
     0
102
RTVSPost2010Prop35
280
     0
102
RTVSPost2010PropOp35
 70
     0
102
RTVSPost2010Prop36
280
     0
102
RTVSPost2010PropOp36
 70
     0
102
RTVSPost2010Prop37
 90
       50
102
RTVSPost2010PropOp37
 70
     0
102
RTVSPost2010Prop38
140
0.0
102
RTVSPost2010PropOp38
 70
     0
102
RTVSPost2010Prop39
140
1.0
102
RTVSPost2010PropOp39
 70
     0
102
RTVSPost2010Prop40
 90
        0
102
RTVSPost2010PropOp40
 70
     0
102
RTVSPost2010Prop41ColorIndex
 90
       18
102
RTVSPost2010Prop41ColorRGB
 90
        0
102
RTVSPost2010PropOp41
 70
     0
102
RTVSPost2010Prop42
 90
       50
102
RTVSPost2010PropOp42
 70
     0
102
RTVSPost2010Prop43
 90
        3
102
RTVSPost2010PropOp43
 70
     0
102
RTVSPost2010Prop44ColorIndex
 90
        5
102
RTVSPost2010Prop44ColorRGB
 90
      255
102
RTVSPost2010PropOp44
 70
     0
102
RTVSPost2010Prop45
280
     0
102
RTVSPost2010PropOp45
 70
     0
102
RTVSPost2010Prop46
 90
       50
102
RTVSPost2010PropOp46
 70
     0
102
RTVSPost2010Prop47
 90
       50
102
RTVSPost2010PropOp47
 70
     0
102
RTVSPost2010Prop48
 90
       50
102
RTVSPost2010PropOp48
 70
     0
102
RTVSPost2010Prop49
280
     0
102
RTVSPost2010PropOp49
 70
     0
102
RTVSPost2010Prop50
 90
       50
102
RTVSPost2010PropOp50
 70
     0
102
RTVSPost2010Prop51ColorIndex
 90
      256
102
RTVSPost2010Prop51ColorRGB
 90
-16777216
102
RTVSPost2010PropOp51
 70
     0
102
RTVSPost2010Prop52
140
1.0
102
RTVSPost2010PropOp52
 70
     0
102
RTVSPost2010Prop53
 90
        2
102
RTVSPost2010PropOp53
 70
     0
102
RTVSPost2010Prop54
  1
strokes_ogs.tif
102
RTVSPost2010PropOp54
 70
     0
102
RTVSPost2010Prop55
280
     0
102
RTVSPost2010PropOp55
 70
     0
102
RTVSPost2010Prop56
140
1.0
102
RTVSPost2010PropOp56
 70
     0
102
RTVSPost2010Prop57
140
1.0
102
RTVSPost2010PropOp57
 70
     0
  0
XRECORD
  5
14F
102
{ACAD_REACTORS
330
14E
102
}
330
14E
100
AcDbXrecord
280
     1
102
RTVSPost2010Prop28
280
     0
102
RTVSPost2010PropOp28
 70
     1
102
RTVSPost2010Prop29
280
     1
102
RTVSPost2010PropOp29
 70
     1
102
RTVSPost2010Prop30
280
     1
102
RTVSPost2010PropOp30
 70
     1
102
RTVSPost2010Prop31
280
     0
102
RTVSPost2010PropOp31
 70
     1
102
RTVSPost2010Prop32
280
     0
102
RTVSPost2010PropOp32
 70
     1
102
RTVSPost2010Prop33
280
     0
102
RTVSPost2010PropOp33
 70
     1
102
RTVSPost2010Prop34
280
     0
102
RTVSPost2010PropOp34
 70
     1
102
RTVSPost2010Prop35
280
     0
102
RTVSPost2010PropOp35
 70
     1
102
RTVSPost2010Prop36
280
     0
102
RTVSPost2010PropOp36
 70
     1
102
RTVSPost2010Prop37
 90
       50
102
RTVSPost2010PropOp37
 70
     1
102
RTVSPost2010Prop38
140
0.0
102
RTVSPost2010PropOp38
 70
     1
102
RTVSPost2010Prop39
140
1.0
102
RTVSPost2010PropOp39
 70
     1
102
RTVSPost2010Prop40
 90
        0
102
RTVSPost2010PropOp40
 70
     1
102
RTVSPost2010Prop41ColorIndex
 90
       18
102
RTVSPost2010Prop41ColorRGB
 90
        0
102
RTVSPost2010PropOp41
 70
     1
102
RTVSPost2010Prop42
 90
       50
102
RTVSPost2010PropOp42
 70
     1
102
RTVSPost2010Prop43
 90
        3
102
RTVSPost2010PropOp43
 70
     1
102
RTVSPost2010Prop44ColorIndex
 90
        5
102
RTVSPost2010Prop44ColorRGB
 90
      255
102
RTVSPost2010PropOp44
 70
     1
102
RTVSPost2010Prop45
280
     0
102
RTVSPost2010PropOp45
 70
     1
102
RTVSPost2010Prop46
 90
       50
102
RTVSPost2010PropOp46
 70
     1
102
RTVSPost2010Prop47
 90
       50
102
RTVSPost2010PropOp47
 70
     1
102
RTVSPost2010Prop48
 90
       50
102
RTVSPost2010PropOp48
 70
     1
102
RTVSPost2010Prop49
280
     0
102
RTVSPost2010PropOp49
 70
     1
102
RTVSPost2010Prop50
 90
       50
102
RTVSPost2010PropOp50
 70
     1
102
RTVSPost2010Prop51ColorIndex
 90
      256
102
RTVSPost2010Prop51ColorRGB
 90
-16777216
102
RTVSPost2010PropOp51
 70
     0
102
RTVSPost2010Prop52
140
1.0
102
RTVSPost2010PropOp52
 70
     0
102
RTVSPost2010Prop53
 90
        2
102
RTVSPost2010PropOp53
 70
     1
102
RTVSPost2010Prop54
  1
strokes_ogs.tif
102
RTVSPost2010PropOp54
 70
     1
102
RTVSPost2010Prop55
280
     0
102
RTVSPost2010PropOp55
 70
     1
102
RTVSPost2010Prop56
140
1.0
102
RTVSPost2010PropOp56
 70
     1
102
RTVSPost2010Prop57
140
1.0
102
RTVSPost2010PropOp57
 70
     1
  0
XRECORD
  5
133
102
{ACAD_REACTORS
330
132
102
}
330
132
100
AcDbXrecord
280
     1
102
RTVSPost2010Prop28
280
     0
102
RTVSPost2010PropOp28
 70
     1
102
RTVSPost2010Prop29
280
     1
102
RTVSPost2010PropOp29
 70
     1
102
RTVSPost2010Prop30
280
     1
102
RTVSPost2010PropOp30
 70
     1
102
RTVSPost2010Prop31
280
     0
102
RTVSPost2010PropOp31
 70
     1
102
RTVSPost2010Prop32
280
     0
102
RTVSPost2010PropOp32
 70
     1
102
RTVSPost2010Prop33
280
     0
102
RTVSPost2010PropOp33
 70
     1
102
RTVSPost2010Prop34
280
     0
102
RTVSPost2010PropOp34
 70
     1
102
RTVSPost2010Prop35
280
     0
102
RTVSPost2010PropOp35
 70
     1
102
RTVSPost2010Prop36
280
     0
102
RTVSPost2010PropOp36
 70
     1
102
RTVSPost2010Prop37
 90
       50
102
RTVSPost2010PropOp37
 70
     1
102
RTVSPost2010Prop38
140
0.0
102
RTVSPost2010PropOp38
 70
     1
102
RTVSPost2010Prop39
140
1.0
102
RTVSPost2010PropOp39
 70
     1
102
RTVSPost2010Prop40
 90
        0
102
RTVSPost2010PropOp40
 70
     1
102
RTVSPost2010Prop41ColorIndex
 90
       18
102
RTVSPost2010Prop41ColorRGB
 90
        0
102
RTVSPost2010PropOp41
 70
     1
102
RTVSPost2010Prop42
 90
       50
102
RTVSPost2010PropOp42
 70
     1
102
RTVSPost2010Prop43
 90
        3
102
RTVSPost2010PropOp43
 70
     1
102
RTVSPost2010Prop44ColorIndex
 90
        5
102
RTVSPost2010Prop44ColorRGB
 90
      255
102
RTVSPost2010PropOp44
 70
     1
102
RTVSPost2010Prop45
280
     0
102
RTVSPost2010PropOp45
 70
     1
102
RTVSPost2010Prop46
 90
       50
102
RTVSPost2010PropOp46
 70
     1
102
RTVSPost2010Prop47
 90
       50
102
RTVSPost2010PropOp47
 70
     1
102
RTVSPost2010Prop48
 90
       50
102
RTVSPost2010PropOp48
 70
     1
102
RTVSPost2010Prop49
280
     0
102
RTVSPost2010PropOp49
 70
     1
102
RTVSPost2010Prop50
 90
       50
102
RTVSPost2010PropOp50
 70
     1
102
RTVSPost2010Prop51ColorIndex
 90
      256
102
RTVSPost2010Prop51ColorRGB
 90
-16777216
102
RTVSPost2010PropOp51
 70
     0
102
RTVSPost2010Prop52
140
1.0
102
RTVSPost2010PropOp52
 70
     0
102
RTVSPost2010Prop53
 90
        2
102
RTVSPost2010PropOp53
 70
     1
102
RTVSPost2010Prop54
  1
strokes_ogs.tif
102
RTVSPost2010PropOp54
 70
     1
102
RTVSPost2010Prop55
280
     0
102
RTVSPost2010PropOp55
 70
     1
102
RTVSPost2010Prop56
140
1.0
102
RTVSPost2010PropOp56
 70
     1
102
RTVSPost2010Prop57
140
1.0
102
RTVSPost2010PropOp57
 70
     1
  0
XRECORD
  5
135
102
{ACAD_REACTORS
330
134
102
}
330
134
100
AcDbXrecord
280
     1
102
RTVSPost2010Prop28
280
     0
102
RTVSPost2010PropOp28
 70
     1
102
RTVSPost2010Prop29
280
     1
102
RTVSPost2010PropOp29
 70
     1
102
RTVSPost2010Prop30
280
     1
102
RTVSPost2010PropOp30
 70
     1
102
RTVSPost2010Prop31
280
     0
102
RTVSPost2010PropOp31
 70
     1
102
RTVSPost2010Prop32
280
     0
102
RTVSPost2010PropOp32
 70
     1
102
RTVSPost2010Prop33
280
     0
102
RTVSPost2010PropOp33
 70
     1
102
RTVSPost2010Prop34
280
     0
102
RTVSPost2010PropOp34
 70
     1
102
RTVSPost2010Prop35
280
     0
102
RTVSPost2010PropOp35
 70
     1
102
RTVSPost2010Prop36
280
     0
102
RTVSPost2010PropOp36
 70
     1
102
RTVSPost2010Prop37
 90
       50
102
RTVSPost2010PropOp37
 70
     1
102
RTVSPost2010Prop38
140
0.0
102
RTVSPost2010PropOp38
 70
     1
102
RTVSPost2010Prop39
140
1.0
102
RTVSPost2010PropOp39
 70
     1
102
RTVSPost2010Prop40
 90
        0
102
RTVSPost2010PropOp40
 70
     1
102
RTVSPost2010Prop41ColorIndex
 90
       18
102
RTVSPost2010Prop41ColorRGB
 90
        0
102
RTVSPost2010PropOp41
 70
     1
102
RTVSPost2010Prop42
 90
       50
102
RTVSPost2010PropOp42
 70
     1
102
RTVSPost2010Prop43
 90
        3
102
RTVSPost2010PropOp43
 70
     1
102
RTVSPost2010Prop44ColorIndex
 90
        5
102
RTVSPost2010Prop44ColorRGB
 90
      255
102
RTVSPost2010PropOp44
 70
     1
102
RTVSPost2010Prop45
280
     0
102
RTVSPost2010PropOp45
 70
     1
102
RTVSPost2010Prop46
 90
       50
102
RTVSPost2010PropOp46
 70
     1
102
RTVSPost2010Prop47
 90
       50
102
RTVSPost2010PropOp47
 70
     1
102
RTVSPost2010Prop48
 90
       50
102
RTVSPost2010PropOp48
 70
     1
102
RTVSPost2010Prop49
280
     0
102
RTVSPost2010PropOp49
 70
     1
102
RTVSPost2010Prop50
 90
       50
102
RTVSPost2010PropOp50
 70
     1
102
RTVSPost2010Prop51ColorIndex
 90
      256
102
RTVSPost2010Prop51ColorRGB
 90
-16777216
102
RTVSPost2010PropOp51
 70
     0
102
RTVSPost2010Prop52
140
1.0
102
RTVSPost2010PropOp52
 70
     0
102
RTVSPost2010Prop53
 90
        2
102
RTVSPost2010PropOp53
 70
     1
102
RTVSPost2010Prop54
  1
strokes_ogs.tif
102
RTVSPost2010PropOp54
 70
     1
102
RTVSPost2010Prop55
280
     0
102
RTVSPost2010PropOp55
 70
     1
102
RTVSPost2010Prop56
140
1.0
102
RTVSPost2010PropOp56
 70
     1
102
RTVSPost2010Prop57
140
1.0
102
RTVSPost2010PropOp57
 70
     1
  0
XRECORD
  5
137
102
{ACAD_REACTORS
330
136
102
}
330
136
100
AcDbXrecord
280
     1
102
RTVSPost2010Prop28
280
     0
102
RTVSPost2010PropOp28
 70
     1
102
RTVSPost2010Prop29
280
     1
102
RTVSPost2010PropOp29
 70
     1
102
RTVSPost2010Prop30
280
     1
102
RTVSPost2010PropOp30
 70
     1
102
RTVSPost2010Prop31
280
     0
102
RTVSPost2010PropOp31
 70
     1
102
RTVSPost2010Prop32
280
     0
102
RTVSPost2010PropOp32
 70
     1
102
RTVSPost2010Prop33
280
     0
102
RTVSPost2010PropOp33
 70
     1
102
RTVSPost2010Prop34
280
     0
102
RTVSPost2010PropOp34
 70
     1
102
RTVSPost2010Prop35
280
     0
102
RTVSPost2010PropOp35
 70
     1
102
RTVSPost2010Prop36
280
     0
102
RTVSPost2010PropOp36
 70
     1
102
RTVSPost2010Prop37
 90
       50
102
RTVSPost2010PropOp37
 70
     1
102
RTVSPost2010Prop38
140
0.0
102
RTVSPost2010PropOp38
 70
     1
102
RTVSPost2010Prop39
140
1.0
102
RTVSPost2010PropOp39
 70
     1
102
RTVSPost2010Prop40
 90
        0
102
RTVSPost2010PropOp40
 70
     1
102
RTVSPost2010Prop41ColorIndex
 90
       18
102
RTVSPost2010Prop41ColorRGB
 90
        0
102
RTVSPost2010PropOp41
 70
     1
102
RTVSPost2010Prop42
 90
       50
102
RTVSPost2010PropOp42
 70
     1
102
RTVSPost2010Prop43
 90
        3
102
RTVSPost2010PropOp43
 70
     1
102
RTVSPost2010Prop44ColorIndex
 90
        5
102
RTVSPost2010Prop44ColorRGB
 90
      255
102
RTVSPost2010PropOp44
 70
     1
102
RTVSPost2010Prop45
280
     0
102
RTVSPost2010PropOp45
 70
     1
102
RTVSPost2010Prop46
 90
       50
102
RTVSPost2010PropOp46
 70
     1
102
RTVSPost2010Prop47
 90
       50
102
RTVSPost2010PropOp47
 70
     1
102
RTVSPost2010Prop48
 90
       50
102
RTVSPost2010PropOp48
 70
     1
102
RTVSPost2010Prop49
280
     0
102
RTVSPost2010PropOp49
 70
     1
102
RTVSPost2010Prop50
 90
       50
102
RTVSPost2010PropOp50
 70
     1
102
RTVSPost2010Prop51ColorIndex
 90
      256
102
RTVSPost2010Prop51ColorRGB
 90
-16777216
102
RTVSPost2010PropOp51
 70
     0
102
RTVSPost2010Prop52
140
1.0
102
RTVSPost2010PropOp52
 70
     0
102
RTVSPost2010Prop53
 90
        2
102
RTVSPost2010PropOp53
 70
     1
102
RTVSPost2010Prop54
  1
strokes_ogs.tif
102
RTVSPost2010PropOp54
 70
     1
102
RTVSPost2010Prop55
280
     0
102
RTVSPost2010PropOp55
 70
     1
102
RTVSPost2010Prop56
140
1.0
102
RTVSPost2010PropOp56
 70
     1
102
RTVSPost2010Prop57
140
1.0
102
RTVSPost2010PropOp57
 70
     1
  0
XRECORD
  5
139
102
{ACAD_REACTORS
330
138
102
}
330
138
100
AcDbXrecord
280
     1
102
RTVSPost2010Prop28
280
     0
102
RTVSPost2010PropOp28
 70
     1
102
RTVSPost2010Prop29
280
     1
102
RTVSPost2010PropOp29
 70
     1
102
RTVSPost2010Prop30
280
     1
102
RTVSPost2010PropOp30
 70
     1
102
RTVSPost2010Prop31
280
     0
102
RTVSPost2010PropOp31
 70
     1
102
RTVSPost2010Prop32
280
     0
102
RTVSPost2010PropOp32
 70
     1
102
RTVSPost2010Prop33
280
     0
102
RTVSPost2010PropOp33
 70
     1
102
RTVSPost2010Prop34
280
     0
102
RTVSPost2010PropOp34
 70
     1
102
RTVSPost2010Prop35
280
     0
102
RTVSPost2010PropOp35
 70
     1
102
RTVSPost2010Prop36
280
     0
102
RTVSPost2010PropOp36
 70
     1
102
RTVSPost2010Prop37
 90
       50
102
RTVSPost2010PropOp37
 70
     1
102
RTVSPost2010Prop38
140
0.0
102
RTVSPost2010PropOp38
 70
     1
102
RTVSPost2010Prop39
140
1.0
102
RTVSPost2010PropOp39
 70
     1
102
RTVSPost2010Prop40
 90
        0
102
RTVSPost2010PropOp40
 70
     1
102
RTVSPost2010Prop41ColorIndex
 90
       18
102
RTVSPost2010Prop41ColorRGB
 90
        0
102
RTVSPost2010PropOp41
 70
     1
102
RTVSPost2010Prop42
 90
       50
102
RTVSPost2010PropOp42
 70
     1
102
RTVSPost2010Prop43
 90
        3
102
RTVSPost2010PropOp43
 70
     1
102
RTVSPost2010Prop44ColorIndex
 90
        5
102
RTVSPost2010Prop44ColorRGB
 90
      255
102
RTVSPost2010PropOp44
 70
     1
102
RTVSPost2010Prop45
280
     0
102
RTVSPost2010PropOp45
 70
     1
102
RTVSPost2010Prop46
 90
       50
102
RTVSPost2010PropOp46
 70
     1
102
RTVSPost2010Prop47
 90
       50
102
RTVSPost2010PropOp47
 70
     1
102
RTVSPost2010Prop48
 90
       50
102
RTVSPost2010PropOp48
 70
     1
102
RTVSPost2010Prop49
280
     0
102
RTVSPost2010PropOp49
 70
     1
102
RTVSPost2010Prop50
 90
       50
102
RTVSPost2010PropOp50
 70
     1
102
RTVSPost2010Prop51ColorIndex
 90
      256
102
RTVSPost2010Prop51ColorRGB
 90
-16777216
102
RTVSPost2010PropOp51
 70
     0
102
RTVSPost2010Prop52
140
1.0
102
RTVSPost2010PropOp52
 70
     0
102
RTVSPost2010Prop53
 90
        2
102
RTVSPost2010PropOp53
 70
     1
102
RTVSPost2010Prop54
  1
strokes_ogs.tif
102
RTVSPost2010PropOp54
 70
     1
102
RTVSPost2010Prop55
280
     0
102
RTVSPost2010PropOp55
 70
     1
102
RTVSPost2010Prop56
140
1.0
102
RTVSPost2010PropOp56
 70
     1
102
RTVSPost2010Prop57
140
1.0
102
RTVSPost2010PropOp57
 70
     1
  0
XRECORD
  5
13F
102
{ACAD_REACTORS
330
13E
102
}
330
13E
100
AcDbXrecord
280
     1
102
RTVSPost2010Prop28
280
     0
102
RTVSPost2010PropOp28
 70
     1
102
RTVSPost2010Prop29
280
     1
102
RTVSPost2010PropOp29
 70
     1
102
RTVSPost2010Prop30
280
     1
102
RTVSPost2010PropOp30
 70
     1
102
RTVSPost2010Prop31
280
     0
102
RTVSPost2010PropOp31
 70
     1
102
RTVSPost2010Prop32
280
     0
102
RTVSPost2010PropOp32
 70
     1
102
RTVSPost2010Prop33
280
     0
102
RTVSPost2010PropOp33
 70
     1
102
RTVSPost2010Prop34
280
     0
102
RTVSPost2010PropOp34
 70
     1
102
RTVSPost2010Prop35
280
     0
102
RTVSPost2010PropOp35
 70
     1
102
RTVSPost2010Prop36
280
     0
102
RTVSPost2010PropOp36
 70
     1
102
RTVSPost2010Prop37
 90
       50
102
RTVSPost2010PropOp37
 70
     1
102
RTVSPost2010Prop38
140
0.0
102
RTVSPost2010PropOp38
 70
     1
102
RTVSPost2010Prop39
140
1.0
102
RTVSPost2010PropOp39
 70
     1
102
RTVSPost2010Prop40
 90
        0
102
RTVSPost2010PropOp40
 70
     1
102
RTVSPost2010Prop41ColorIndex
 90
       18
102
RTVSPost2010Prop41ColorRGB
 90
        0
102
RTVSPost2010PropOp41
 70
     1
102
RTVSPost2010Prop42
 90
       50
102
RTVSPost2010PropOp42
 70
     1
102
RTVSPost2010Prop43
 90
        3
102
RTVSPost2010PropOp43
 70
     1
102
RTVSPost2010Prop44ColorIndex
 90
        5
102
RTVSPost2010Prop44ColorRGB
 90
      255
102
RTVSPost2010PropOp44
 70
     1
102
RTVSPost2010Prop45
280
     0
102
RTVSPost2010PropOp45
 70
     1
102
RTVSPost2010Prop46
 90
       50
102
RTVSPost2010PropOp46
 70
     1
102
RTVSPost2010Prop47
 90
       50
102
RTVSPost2010PropOp47
 70
     1
102
RTVSPost2010Prop48
 90
       50
102
RTVSPost2010PropOp48
 70
     1
102
RTVSPost2010Prop49
280
     0
102
RTVSPost2010PropOp49
 70
     1
102
RTVSPost2010Prop50
 90
       50
102
RTVSPost2010PropOp50
 70
     1
102
RTVSPost2010Prop51ColorIndex
 90
      256
102
RTVSPost2010Prop51ColorRGB
 90
-16777216
102
RTVSPost2010PropOp51
 70
     0
102
RTVSPost2010Prop52
140
1.0
102
RTVSPost2010PropOp52
 70
     0
102
RTVSPost2010Prop53
 90
        2
102
RTVSPost2010PropOp53
 70
     1
102
RTVSPost2010Prop54
  1
strokes_ogs.tif
102
RTVSPost2010PropOp54
 70
     1
102
RTVSPost2010Prop55
280
     0
102
RTVSPost2010PropOp55
 70
     1
102
RTVSPost2010Prop56
140
1.0
102
RTVSPost2010PropOp56
 70
     1
102
RTVSPost2010Prop57
140
1.0
102
RTVSPost2010PropOp57
 70
     1
  0
XRECORD
  5
153
102
{ACAD_REACTORS
330
152
102
}
330
152
100
AcDbXrecord
280
     1
102
RTVSPost2010Prop28
280
     0
102
RTVSPost2010PropOp28
 70
     0
102
RTVSPost2010Prop29
280
     1
102
RTVSPost2010PropOp29
 70
     0
102
RTVSPost2010Prop30
280
     1
102
RTVSPost2010PropOp30
 70
     0
102
RTVSPost2010Prop31
280
     0
102
RTVSPost2010PropOp31
 70
     0
102
RTVSPost2010Prop32
280
     0
102
RTVSPost2010PropOp32
 70
     0
102
RTVSPost2010Prop33
280
     0
102
RTVSPost2010PropOp33
 70
     0
102
RTVSPost2010Prop34
280
     0
102
RTVSPost2010PropOp34
 70
     0
102
RTVSPost2010Prop35
280
     0
102
RTVSPost2010PropOp35
 70
     0
102
RTVSPost2010Prop36
280
     0
102
RTVSPost2010PropOp36
 70
     0
102
RTVSPost2010Prop37
 90
       50
102
RTVSPost2010PropOp37
 70
     0
102
RTVSPost2010Prop38
140
0.0
102
RTVSPost2010PropOp38
 70
     0
102
RTVSPost2010Prop39
140
1.0
102
RTVSPost2010PropOp39
 70
     0
102
RTVSPost2010Prop40
 90
        0
102
RTVSPost2010PropOp40
 70
     0
102
RTVSPost2010Prop41ColorIndex
 90
       18
102
RTVSPost2010Prop41ColorRGB
 90
        0
102
RTVSPost2010PropOp41
 70
     0
102
RTVSPost2010Prop42
 90
       50
102
RTVSPost2010PropOp42
 70
     0
102
RTVSPost2010Prop43
 90
        3
102
RTVSPost2010PropOp43
 70
     0
102
RTVSPost2010Prop44ColorIndex
 90
        5
102
RTVSPost2010Prop44ColorRGB
 90
      255
102
RTVSPost2010PropOp44
 70
     0
102
RTVSPost2010Prop45
280
     0
102
RTVSPost2010PropOp45
 70
     0
102
RTVSPost2010Prop46
 90
       50
102
RTVSPost2010PropOp46
 70
     0
102
RTVSPost2010Prop47
 90
       50
102
RTVSPost2010PropOp47
 70
     0
102
RTVSPost2010Prop48
 90
       50
102
RTVSPost2010PropOp48
 70
     0
102
RTVSPost2010Prop49
280
     0
102
RTVSPost2010PropOp49
 70
     0
102
RTVSPost2010Prop50
 90
       50
102
RTVSPost2010PropOp50
 70
     0
102
RTVSPost2010Prop51ColorIndex
 90
      256
102
RTVSPost2010Prop51ColorRGB
 90
-16777216
102
RTVSPost2010PropOp51
 70
     0
102
RTVSPost2010Prop52
140
1.0
102
RTVSPost2010PropOp52
 70
     0
102
RTVSPost2010Prop53
 90
        2
102
RTVSPost2010PropOp53
 70
     0
102
RTVSPost2010Prop54
  1
strokes_ogs.tif
102
RTVSPost2010PropOp54
 70
     0
102
RTVSPost2010Prop55
280
     0
102
RTVSPost2010PropOp55
 70
     0
102
RTVSPost2010Prop56
140
1.0
102
RTVSPost2010PropOp56
 70
     0
102
RTVSPost2010Prop57
140
1.0
102
RTVSPost2010PropOp57
 70
     0
  0
XRECORD
  5
14D
102
{ACAD_REACTORS
330
14C
102
}
330
14C
100
AcDbXrecord
280
     1
102
RTVSPost2010Prop28
280
     0
102
RTVSPost2010PropOp28
 70
     1
102
RTVSPost2010Prop29
280
     1
102
RTVSPost2010PropOp29
 70
     1
102
RTVSPost2010Prop30
280
     1
102
RTVSPost2010PropOp30
 70
     1
102
RTVSPost2010Prop31
280
     0
102
RTVSPost2010PropOp31
 70
     1
102
RTVSPost2010Prop32
280
     0
102
RTVSPost2010PropOp32
 70
     1
102
RTVSPost2010Prop33
280
     0
102
RTVSPost2010PropOp33
 70
     1
102
RTVSPost2010Prop34
280
     0
102
RTVSPost2010PropOp34
 70
     1
102
RTVSPost2010Prop35
280
     0
102
RTVSPost2010PropOp35
 70
     1
102
RTVSPost2010Prop36
280
     0
102
RTVSPost2010PropOp36
 70
     1
102
RTVSPost2010Prop37
 90
       50
102
RTVSPost2010PropOp37
 70
     1
102
RTVSPost2010Prop38
140
0.0
102
RTVSPost2010PropOp38
 70
     1
102
RTVSPost2010Prop39
140
1.0
102
RTVSPost2010PropOp39
 70
     1
102
RTVSPost2010Prop40
 90
        0
102
RTVSPost2010PropOp40
 70
     1
102
RTVSPost2010Prop41ColorIndex
 90
       18
102
RTVSPost2010Prop41ColorRGB
 90
        0
102
RTVSPost2010PropOp41
 70
     1
102
RTVSPost2010Prop42
 90
       50
102
RTVSPost2010PropOp42
 70
     1
102
RTVSPost2010Prop43
 90
        3
102
RTVSPost2010PropOp43
 70
     1
102
RTVSPost2010Prop44ColorIndex
 90
        5
102
RTVSPost2010Prop44ColorRGB
 90
      255
102
RTVSPost2010PropOp44
 70
     1
102
RTVSPost2010Prop45
280
     0
102
RTVSPost2010PropOp45
 70
     1
102
RTVSPost2010Prop46
 90
       50
102
RTVSPost2010PropOp46
 70
     1
102
RTVSPost2010Prop47
 90
       50
102
RTVSPost2010PropOp47
 70
     1
102
RTVSPost2010Prop48
 90
       50
102
RTVSPost2010PropOp48
 70
     1
102
RTVSPost2010Prop49
280
     0
102
RTVSPost2010PropOp49
 70
     1
102
RTVSPost2010Prop50
 90
       50
102
RTVSPost2010PropOp50
 70
     1
102
RTVSPost2010Prop51ColorIndex
 90
      256
102
RTVSPost2010Prop51ColorRGB
 90
-16777216
102
RTVSPost2010PropOp51
 70
     0
102
RTVSPost2010Prop52
140
1.0
102
RTVSPost2010PropOp52
 70
     0
102
RTVSPost2010Prop53
 90
        2
102
RTVSPost2010PropOp53
 70
     1
102
RTVSPost2010Prop54
  1
strokes_ogs.tif
102
RTVSPost2010PropOp54
 70
     1
102
RTVSPost2010Prop55
280
     0
102
RTVSPost2010PropOp55
 70
     1
102
RTVSPost2010Prop56
140
1.0
102
RTVSPost2010PropOp56
 70
     1
102
RTVSPost2010Prop57
140
1.0
102
RTVSPost2010PropOp57
 70
     1
  0
XRECORD
  5
155
102
{ACAD_REACTORS
330
154
102
}
330
154
100
AcDbXrecord
280
     1
102
RTVSPost2010Prop28
280
     0
102
RTVSPost2010PropOp28
 70
     0
102
RTVSPost2010Prop29
280
     1
102
RTVSPost2010PropOp29
 70
     0
102
RTVSPost2010Prop30
280
     1
102
RTVSPost2010PropOp30
 70
     0
102
RTVSPost2010Prop31
280
     0
102
RTVSPost2010PropOp31
 70
     0
102
RTVSPost2010Prop32
280
     0
102
RTVSPost2010PropOp32
 70
     0
102
RTVSPost2010Prop33
280
     0
102
RTVSPost2010PropOp33
 70
     0
102
RTVSPost2010Prop34
280
     0
102
RTVSPost2010PropOp34
 70
     0
102
RTVSPost2010Prop35
280
     0
102
RTVSPost2010PropOp35
 70
     0
102
RTVSPost2010Prop36
280
     0
102
RTVSPost2010PropOp36
 70
     0
102
RTVSPost2010Prop37
 90
       50
102
RTVSPost2010PropOp37
 70
     0
102
RTVSPost2010Prop38
140
0.0
102
RTVSPost2010PropOp38
 70
     0
102
RTVSPost2010Prop39
140
1.0
102
RTVSPost2010PropOp39
 70
     0
102
RTVSPost2010Prop40
 90
        0
102
RTVSPost2010PropOp40
 70
     0
102
RTVSPost2010Prop41ColorIndex
 90
       18
102
RTVSPost2010Prop41ColorRGB
 90
        0
102
RTVSPost2010PropOp41
 70
     0
102
RTVSPost2010Prop42
 90
       50
102
RTVSPost2010PropOp42
 70
     0
102
RTVSPost2010Prop43
 90
        3
102
RTVSPost2010PropOp43
 70
     0
102
RTVSPost2010Prop44ColorIndex
 90
        5
102
RTVSPost2010Prop44ColorRGB
 90
      255
102
RTVSPost2010PropOp44
 70
     0
102
RTVSPost2010Prop45
280
     0
102
RTVSPost2010PropOp45
 70
     0
102
RTVSPost2010Prop46
 90
       50
102
RTVSPost2010PropOp46
 70
     0
102
RTVSPost2010Prop47
 90
       50
102
RTVSPost2010PropOp47
 70
     0
102
RTVSPost2010Prop48
 90
       50
102
RTVSPost2010PropOp48
 70
     0
102
RTVSPost2010Prop49
280
     0
102
RTVSPost2010PropOp49
 70
     0
102
RTVSPost2010Prop50
 90
       50
102
RTVSPost2010PropOp50
 70
     0
102
RTVSPost2010Prop51ColorIndex
 90
      256
102
RTVSPost2010Prop51ColorRGB
 90
-16777216
102
RTVSPost2010PropOp51
 70
     0
102
RTVSPost2010Prop52
140
1.0
102
RTVSPost2010PropOp52
 70
     0
102
RTVSPost2010Prop53
 90
        2
102
RTVSPost2010PropOp53
 70
     0
102
RTVSPost2010Prop54
  1
strokes_ogs.tif
102
RTVSPost2010PropOp54
 70
     0
102
RTVSPost2010Prop55
280
     0
102
RTVSPost2010PropOp55
 70
     0
102
RTVSPost2010Prop56
140
1.0
102
RTVSPost2010PropOp56
 70
     0
102
RTVSPost2010Prop57
140
1.0
102
RTVSPost2010PropOp57
 70
     0
  0
XRECORD
  5
143
102
{ACAD_REACTORS
330
142
102
}
330
142
100
AcDbXrecord
280
     1
102
RTVSPost2010Prop28
280
     0
102
RTVSPost2010PropOp28
 70
     1
102
RTVSPost2010Prop29
280
     1
102
RTVSPost2010PropOp29
 70
     1
102
RTVSPost2010Prop30
280
     1
102
RTVSPost2010PropOp30
 70
     1
102
RTVSPost2010Prop31
280
     0
102
RTVSPost2010PropOp31
 70
     1
102
RTVSPost2010Prop32
280
     0
102
RTVSPost2010PropOp32
 70
     1
102
RTVSPost2010Prop33
280
     0
102
RTVSPost2010PropOp33
 70
     1
102
RTVSPost2010Prop34
280
     0
102
RTVSPost2010PropOp34
 70
     1
102
RTVSPost2010Prop35
280
     0
102
RTVSPost2010PropOp35
 70
     1
102
RTVSPost2010Prop36
280
     0
102
RTVSPost2010PropOp36
 70
     1
102
RTVSPost2010Prop37
 90
       50
102
RTVSPost2010PropOp37
 70
     1
102
RTVSPost2010Prop38
140
0.0
102
RTVSPost2010PropOp38
 70
     1
102
RTVSPost2010Prop39
140
1.0
102
RTVSPost2010PropOp39
 70
     1
102
RTVSPost2010Prop40
 90
        0
102
RTVSPost2010PropOp40
 70
     1
102
RTVSPost2010Prop41ColorIndex
 90
       18
102
RTVSPost2010Prop41ColorRGB
 90
        0
102
RTVSPost2010PropOp41
 70
     1
102
RTVSPost2010Prop42
 90
       50
102
RTVSPost2010PropOp42
 70
     1
102
RTVSPost2010Prop43
 90
        3
102
RTVSPost2010PropOp43
 70
     1
102
RTVSPost2010Prop44ColorIndex
 90
        5
102
RTVSPost2010Prop44ColorRGB
 90
      255
102
RTVSPost2010PropOp44
 70
     1
102
RTVSPost2010Prop45
280
     0
102
RTVSPost2010PropOp45
 70
     1
102
RTVSPost2010Prop46
 90
       50
102
RTVSPost2010PropOp46
 70
     1
102
RTVSPost2010Prop47
 90
       50
102
RTVSPost2010PropOp47
 70
     1
102
RTVSPost2010Prop48
 90
       50
102
RTVSPost2010PropOp48
 70
     1
102
RTVSPost2010Prop49
280
     0
102
RTVSPost2010PropOp49
 70
     1
102
RTVSPost2010Prop50
 90
       50
102
RTVSPost2010PropOp50
 70
     1
102
RTVSPost2010Prop51ColorIndex
 90
      256
102
RTVSPost2010Prop51ColorRGB
 90
-16777216
102
RTVSPost2010PropOp51
 70
     0
102
RTVSPost2010Prop52
140
1.0
102
RTVSPost2010PropOp52
 70
     0
102
RTVSPost2010Prop53
 90
        2
102
RTVSPost2010PropOp53
 70
     1
102
RTVSPost2010Prop54
  1
strokes_ogs.tif
102
RTVSPost2010PropOp54
 70
     1
102
RTVSPost2010Prop55
280
     0
102
RTVSPost2010PropOp55
 70
     1
102
RTVSPost2010Prop56
140
1.0
102
RTVSPost2010PropOp56
 70
     1
102
RTVSPost2010Prop57
140
1.0
102
RTVSPost2010PropOp57
 70
     1
  0
XRECORD
  5
161
102
{ACAD_REACTORS
330
160
102
}
330
160
100
AcDbXrecord
280
     1
102
RTVSPost2010Prop28
280
     0
102
RTVSPost2010PropOp28
 70
     1
102
RTVSPost2010Prop29
280
     1
102
RTVSPost2010PropOp29
 70
     1
102
RTVSPost2010Prop30
280
     1
102
RTVSPost2010PropOp30
 70
     1
102
RTVSPost2010Prop31
280
     0
102
RTVSPost2010PropOp31
 70
     1
102
RTVSPost2010Prop32
280
     0
102
RTVSPost2010PropOp32
 70
     1
102
RTVSPost2010Prop33
280
     0
102
RTVSPost2010PropOp33
 70
     1
102
RTVSPost2010Prop34
280
     0
102
RTVSPost2010PropOp34
 70
     1
102
RTVSPost2010Prop35
280
     0
102
RTVSPost2010PropOp35
 70
     1
102
RTVSPost2010Prop36
280
     0
102
RTVSPost2010PropOp36
 70
     1
102
RTVSPost2010Prop37
 90
       50
102
RTVSPost2010PropOp37
 70
     1
102
RTVSPost2010Prop38
140
0.0
102
RTVSPost2010PropOp38
 70
     1
102
RTVSPost2010Prop39
140
1.0
102
RTVSPost2010PropOp39
 70
     1
102
RTVSPost2010Prop40
 90
        0
102
RTVSPost2010PropOp40
 70
     1
102
RTVSPost2010Prop41ColorIndex
 90
       18
102
RTVSPost2010Prop41ColorRGB
 90
        0
102
RTVSPost2010PropOp41
 70
     1
102
RTVSPost2010Prop42
 90
       50
102
RTVSPost2010PropOp42
 70
     1
102
RTVSPost2010Prop43
 90
        3
102
RTVSPost2010PropOp43
 70
     1
102
RTVSPost2010Prop44ColorIndex
 90
        5
102
RTVSPost2010Prop44ColorRGB
 90
      255
102
RTVSPost2010PropOp44
 70
     1
102
RTVSPost2010Prop45
280
     0
102
RTVSPost2010PropOp45
 70
     1
102
RTVSPost2010Prop46
 90
       50
102
RTVSPost2010PropOp46
 70
     1
102
RTVSPost2010Prop47
 90
       50
102
RTVSPost2010PropOp47
 70
     1
102
RTVSPost2010Prop48
 90
       50
102
RTVSPost2010PropOp48
 70
     1
102
RTVSPost2010Prop49
280
     0
102
RTVSPost2010PropOp49
 70
     1
102
RTVSPost2010Prop50
 90
       50
102
RTVSPost2010PropOp50
 70
     1
102
RTVSPost2010Prop51ColorIndex
 90
      256
102
RTVSPost2010Prop51ColorRGB
 90
-16777216
102
RTVSPost2010PropOp51
 70
     0
102
RTVSPost2010Prop52
140
1.0
102
RTVSPost2010PropOp52
 70
     0
102
RTVSPost2010Prop53
 90
        2
102
RTVSPost2010PropOp53
 70
     1
102
RTVSPost2010Prop54
  1
strokes_ogs.tif
102
RTVSPost2010PropOp54
 70
     1
102
RTVSPost2010Prop55
280
     0
102
RTVSPost2010PropOp55
 70
     1
102
RTVSPost2010Prop56
140
1.0
102
RTVSPost2010PropOp56
 70
     1
102
RTVSPost2010Prop57
140
1.0
102
RTVSPost2010PropOp57
 70
     1
  0
XRECORD
  5
15F
102
{ACAD_REACTORS
330
15E
102
}
330
15E
100
AcDbXrecord
280
     1
102
RTVSPost2010Prop28
280
     0
102
RTVSPost2010PropOp28
 70
     1
102
RTVSPost2010Prop29
280
     1
102
RTVSPost2010PropOp29
 70
     1
102
RTVSPost2010Prop30
280
     1
102
RTVSPost2010PropOp30
 70
     1
102
RTVSPost2010Prop31
280
     0
102
RTVSPost2010PropOp31
 70
     1
102
RTVSPost2010Prop32
280
     0
102
RTVSPost2010PropOp32
 70
     1
102
RTVSPost2010Prop33
280
     0
102
RTVSPost2010PropOp33
 70
     1
102
RTVSPost2010Prop34
280
     0
102
RTVSPost2010PropOp34
 70
     1
102
RTVSPost2010Prop35
280
     0
102
RTVSPost2010PropOp35
 70
     1
102
RTVSPost2010Prop36
280
     0
102
RTVSPost2010PropOp36
 70
     1
102
RTVSPost2010Prop37
 90
       50
102
RTVSPost2010PropOp37
 70
     1
102
RTVSPost2010Prop38
140
0.0
102
RTVSPost2010PropOp38
 70
     1
102
RTVSPost2010Prop39
140
1.0
102
RTVSPost2010PropOp39
 70
     1
102
RTVSPost2010Prop40
 90
        0
102
RTVSPost2010PropOp40
 70
     1
102
RTVSPost2010Prop41ColorIndex
 90
       18
102
RTVSPost2010Prop41ColorRGB
 90
        0
102
RTVSPost2010PropOp41
 70
     1
102
RTVSPost2010Prop42
 90
       50
102
RTVSPost2010PropOp42
 70
     1
102
RTVSPost2010Prop43
 90
        3
102
RTVSPost2010PropOp43
 70
     1
102
RTVSPost2010Prop44ColorIndex
 90
        5
102
RTVSPost2010Prop44ColorRGB
 90
      255
102
RTVSPost2010PropOp44
 70
     1
102
RTVSPost2010Prop45
280
     0
102
RTVSPost2010PropOp45
 70
     1
102
RTVSPost2010Prop46
 90
       50
102
RTVSPost2010PropOp46
 70
     1
102
RTVSPost2010Prop47
 90
       50
102
RTVSPost2010PropOp47
 70
     1
102
RTVSPost2010Prop48
 90
       50
102
RTVSPost2010PropOp48
 70
     1
102
RTVSPost2010Prop49
280
     0
102
RTVSPost2010PropOp49
 70
     1
102
RTVSPost2010Prop50
 90
       50
102
RTVSPost2010PropOp50
 70
     1
102
RTVSPost2010Prop51ColorIndex
 90
      256
102
RTVSPost2010Prop51ColorRGB
 90
-16777216
102
RTVSPost2010PropOp51
 70
     0
102
RTVSPost2010Prop52
140
1.0
102
RTVSPost2010PropOp52
 70
     0
102
RTVSPost2010Prop53
 90
        2
102
RTVSPost2010PropOp53
 70
     1
102
RTVSPost2010Prop54
  1
strokes_ogs.tif
102
RTVSPost2010PropOp54
 70
     1
102
RTVSPost2010Prop55
280
     0
102
RTVSPost2010PropOp55
 70
     1
102
RTVSPost2010Prop56
140
1.0
102
RTVSPost2010PropOp56
 70
     1
102
RTVSPost2010Prop57
140
1.0
102
RTVSPost2010PropOp57
 70
     1
  0
XRECORD
  5
159
102
{ACAD_REACTORS
330
158
102
}
330
158
100
AcDbXrecord
280
     1
102
RTVSPost2010Prop28
280
     0
102
RTVSPost2010PropOp28
 70
     1
102
RTVSPost2010Prop29
280
     1
102
RTVSPost2010PropOp29
 70
     1
102
RTVSPost2010Prop30
280
     1
102
RTVSPost2010PropOp30
 70
     1
102
RTVSPost2010Prop31
280
     0
102
RTVSPost2010PropOp31
 70
     1
102
RTVSPost2010Prop32
280
     0
102
RTVSPost2010PropOp32
 70
     1
102
RTVSPost2010Prop33
280
     0
102
RTVSPost2010PropOp33
 70
     1
102
RTVSPost2010Prop34
280
     0
102
RTVSPost2010PropOp34
 70
     1
102
RTVSPost2010Prop35
280
     0
102
RTVSPost2010PropOp35
 70
     1
102
RTVSPost2010Prop36
280
     0
102
RTVSPost2010PropOp36
 70
     1
102
RTVSPost2010Prop37
 90
       50
102
RTVSPost2010PropOp37
 70
     1
102
RTVSPost2010Prop38
140
0.0
102
RTVSPost2010PropOp38
 70
     1
102
RTVSPost2010Prop39
140
1.0
102
RTVSPost2010PropOp39
 70
     1
102
RTVSPost2010Prop40
 90
        0
102
RTVSPost2010PropOp40
 70
     1
102
RTVSPost2010Prop41ColorIndex
 90
       18
102
RTVSPost2010Prop41ColorRGB
 90
        0
102
RTVSPost2010PropOp41
 70
     1
102
RTVSPost2010Prop42
 90
       50
102
RTVSPost2010PropOp42
 70
     1
102
RTVSPost2010Prop43
 90
        3
102
RTVSPost2010PropOp43
 70
     1
102
RTVSPost2010Prop44ColorIndex
 90
        5
102
RTVSPost2010Prop44ColorRGB
 90
      255
102
RTVSPost2010PropOp44
 70
     1
102
RTVSPost2010Prop45
280
     0
102
RTVSPost2010PropOp45
 70
     1
102
RTVSPost2010Prop46
 90
       50
102
RTVSPost2010PropOp46
 70
     1
102
RTVSPost2010Prop47
 90
       50
102
RTVSPost2010PropOp47
 70
     1
102
RTVSPost2010Prop48
 90
       50
102
RTVSPost2010PropOp48
 70
     1
102
RTVSPost2010Prop49
280
     0
102
RTVSPost2010PropOp49
 70
     1
102
RTVSPost2010Prop50
 90
       50
102
RTVSPost2010PropOp50
 70
     1
102
RTVSPost2010Prop51ColorIndex
 90
      256
102
RTVSPost2010Prop51ColorRGB
 90
-16777216
102
RTVSPost2010PropOp51
 70
     0
102
RTVSPost2010Prop52
140
1.0
102
RTVSPost2010PropOp52
 70
     0
102
RTVSPost2010Prop53
 90
        2
102
RTVSPost2010PropOp53
 70
     1
102
RTVSPost2010Prop54
  1
strokes_ogs.tif
102
RTVSPost2010PropOp54
 70
     1
102
RTVSPost2010Prop55
280
     0
102
RTVSPost2010PropOp55
 70
     1
102
RTVSPost2010Prop56
140
1.0
102
RTVSPost2010PropOp56
 70
     1
102
RTVSPost2010Prop57
140
1.0
102
RTVSPost2010PropOp57
 70
     1
  0
XRECORD
  5
15B
102
{ACAD_REACTORS
330
15A
102
}
330
15A
100
AcDbXrecord
280
     1
102
RTVSPost2010Prop28
280
     0
102
RTVSPost2010PropOp28
 70
     1
102
RTVSPost2010Prop29
280
     1
102
RTVSPost2010PropOp29
 70
     1
102
RTVSPost2010Prop30
280
     1
102
RTVSPost2010PropOp30
 70
     1
102
RTVSPost2010Prop31
280
     0
102
RTVSPost2010PropOp31
 70
     1
102
RTVSPost2010Prop32
280
     0
102
RTVSPost2010PropOp32
 70
     1
102
RTVSPost2010Prop33
280
     0
102
RTVSPost2010PropOp33
 70
     1
102
RTVSPost2010Prop34
280
     0
102
RTVSPost2010PropOp34
 70
     1
102
RTVSPost2010Prop35
280
     0
102
RTVSPost2010PropOp35
 70
     1
102
RTVSPost2010Prop36
280
     0
102
RTVSPost2010PropOp36
 70
     1
102
RTVSPost2010Prop37
 90
       50
102
RTVSPost2010PropOp37
 70
     1
102
RTVSPost2010Prop38
140
0.0
102
RTVSPost2010PropOp38
 70
     1
102
RTVSPost2010Prop39
140
1.0
102
RTVSPost2010PropOp39
 70
     1
102
RTVSPost2010Prop40
 90
        0
102
RTVSPost2010PropOp40
 70
     1
102
RTVSPost2010Prop41ColorIndex
 90
       18
102
RTVSPost2010Prop41ColorRGB
 90
        0
102
RTVSPost2010PropOp41
 70
     1
102
RTVSPost2010Prop42
 90
       50
102
RTVSPost2010PropOp42
 70
     1
102
RTVSPost2010Prop43
 90
        3
102
RTVSPost2010PropOp43
 70
     1
102
RTVSPost2010Prop44ColorIndex
 90
        5
102
RTVSPost2010Prop44ColorRGB
 90
      255
102
RTVSPost2010PropOp44
 70
     1
102
RTVSPost2010Prop45
280
     0
102
RTVSPost2010PropOp45
 70
     1
102
RTVSPost2010Prop46
 90
       50
102
RTVSPost2010PropOp46
 70
     1
102
RTVSPost2010Prop47
 90
       50
102
RTVSPost2010PropOp47
 70
     1
102
RTVSPost2010Prop48
 90
       50
102
RTVSPost2010PropOp48
 70
     1
102
RTVSPost2010Prop49
280
     0
102
RTVSPost2010PropOp49
 70
     1
102
RTVSPost2010Prop50
 90
       50
102
RTVSPost2010PropOp50
 70
     1
102
RTVSPost2010Prop51ColorIndex
 90
      256
102
RTVSPost2010Prop51ColorRGB
 90
-16777216
102
RTVSPost2010PropOp51
 70
     0
102
RTVSPost2010Prop52
140
1.0
102
RTVSPost2010PropOp52
 70
     0
102
RTVSPost2010Prop53
 90
        2
102
RTVSPost2010PropOp53
 70
     1
102
RTVSPost2010Prop54
  1
strokes_ogs.tif
102
RTVSPost2010PropOp54
 70
     1
102
RTVSPost2010Prop55
280
     0
102
RTVSPost2010PropOp55
 70
     1
102
RTVSPost2010Prop56
140
1.0
102
RTVSPost2010PropOp56
 70
     1
102
RTVSPost2010Prop57
140
1.0
102
RTVSPost2010PropOp57
 70
     1
  0
XRECORD
  5
14B
102
{ACAD_REACTORS
330
14A
102
}
330
14A
100
AcDbXrecord
280
     1
102
RTVSPost2010Prop28
280
     0
102
RTVSPost2010PropOp28
 70
     1
102
RTVSPost2010Prop29
280
     1
102
RTVSPost2010PropOp29
 70
     1
102
RTVSPost2010Prop30
280
     1
102
RTVSPost2010PropOp30
 70
     1
102
RTVSPost2010Prop31
280
     0
102
RTVSPost2010PropOp31
 70
     1
102
RTVSPost2010Prop32
280
     0
102
RTVSPost2010PropOp32
 70
     1
102
RTVSPost2010Prop33
280
     0
102
RTVSPost2010PropOp33
 70
     1
102
RTVSPost2010Prop34
280
     0
102
RTVSPost2010PropOp34
 70
     1
102
RTVSPost2010Prop35
280
     0
102
RTVSPost2010PropOp35
 70
     1
102
RTVSPost2010Prop36
280
     0
102
RTVSPost2010PropOp36
 70
     1
102
RTVSPost2010Prop37
 90
       50
102
RTVSPost2010PropOp37
 70
     1
102
RTVSPost2010Prop38
140
0.0
102
RTVSPost2010PropOp38
 70
     1
102
RTVSPost2010Prop39
140
1.0
102
RTVSPost2010PropOp39
 70
     1
102
RTVSPost2010Prop40
 90
        0
102
RTVSPost2010PropOp40
 70
     1
102
RTVSPost2010Prop41ColorIndex
 90
       18
102
RTVSPost2010Prop41ColorRGB
 90
        0
102
RTVSPost2010PropOp41
 70
     1
102
RTVSPost2010Prop42
 90
       50
102
RTVSPost2010PropOp42
 70
     1
102
RTVSPost2010Prop43
 90
        3
102
RTVSPost2010PropOp43
 70
     1
102
RTVSPost2010Prop44ColorIndex
 90
        5
102
RTVSPost2010Prop44ColorRGB
 90
      255
102
RTVSPost2010PropOp44
 70
     1
102
RTVSPost2010Prop45
280
     0
102
RTVSPost2010PropOp45
 70
     1
102
RTVSPost2010Prop46
 90
       50
102
RTVSPost2010PropOp46
 70
     1
102
RTVSPost2010Prop47
 90
       50
102
RTVSPost2010PropOp47
 70
     1
102
RTVSPost2010Prop48
 90
       50
102
RTVSPost2010PropOp48
 70
     1
102
RTVSPost2010Prop49
280
     0
102
RTVSPost2010PropOp49
 70
     1
102
RTVSPost2010Prop50
 90
       50
102
RTVSPost2010PropOp50
 70
     1
102
RTVSPost2010Prop51ColorIndex
 90
      256
102
RTVSPost2010Prop51ColorRGB
 90
-16777216
102
RTVSPost2010PropOp51
 70
     0
102
RTVSPost2010Prop52
140
1.0
102
RTVSPost2010PropOp52
 70
     0
102
RTVSPost2010Prop53
 90
        2
102
RTVSPost2010PropOp53
 70
     1
102
RTVSPost2010Prop54
  1
strokes_ogs.tif
102
RTVSPost2010PropOp54
 70
     1
102
RTVSPost2010Prop55
280
     0
102
RTVSPost2010PropOp55
 70
     1
102
RTVSPost2010Prop56
140
1.0
102
RTVSPost2010PropOp56
 70
     1
102
RTVSPost2010Prop57
140
1.0
102
RTVSPost2010PropOp57
 70
     1
  0
XRECORD
  5
13D
102
{ACAD_REACTORS
330
13C
102
}
330
13C
100
AcDbXrecord
280
     1
102
RTVSPost2010Prop28
280
     0
102
RTVSPost2010PropOp28
 70
     1
102
RTVSPost2010Prop29
280
     1
102
RTVSPost2010PropOp29
 70
     1
102
RTVSPost2010Prop30
280
     1
102
RTVSPost2010PropOp30
 70
     1
102
RTVSPost2010Prop31
280
     0
102
RTVSPost2010PropOp31
 70
     1
102
RTVSPost2010Prop32
280
     0
102
RTVSPost2010PropOp32
 70
     1
102
RTVSPost2010Prop33
280
     0
102
RTVSPost2010PropOp33
 70
     1
102
RTVSPost2010Prop34
280
     0
102
RTVSPost2010PropOp34
 70
     1
102
RTVSPost2010Prop35
280
     0
102
RTVSPost2010PropOp35
 70
     1
102
RTVSPost2010Prop36
280
     0
102
RTVSPost2010PropOp36
 70
     1
102
RTVSPost2010Prop37
 90
       50
102
RTVSPost2010PropOp37
 70
     1
102
RTVSPost2010Prop38
140
0.0
102
RTVSPost2010PropOp38
 70
     1
102
RTVSPost2010Prop39
140
1.0
102
RTVSPost2010PropOp39
 70
     1
102
RTVSPost2010Prop40
 90
        0
102
RTVSPost2010PropOp40
 70
     1
102
RTVSPost2010Prop41ColorIndex
 90
       18
102
RTVSPost2010Prop41ColorRGB
 90
        0
102
RTVSPost2010PropOp41
 70
     1
102
RTVSPost2010Prop42
 90
       50
102
RTVSPost2010PropOp42
 70
     1
102
RTVSPost2010Prop43
 90
        3
102
RTVSPost2010PropOp43
 70
     1
102
RTVSPost2010Prop44ColorIndex
 90
        5
102
RTVSPost2010Prop44ColorRGB
 90
      255
102
RTVSPost2010PropOp44
 70
     1
102
RTVSPost2010Prop45
280
     0
102
RTVSPost2010PropOp45
 70
     1
102
RTVSPost2010Prop46
 90
       50
102
RTVSPost2010PropOp46
 70
     1
102
RTVSPost2010Prop47
 90
       50
102
RTVSPost2010PropOp47
 70
     1
102
RTVSPost2010Prop48
 90
       50
102
RTVSPost2010PropOp48
 70
     1
102
RTVSPost2010Prop49
280
     0
102
RTVSPost2010PropOp49
 70
     1
102
RTVSPost2010Prop50
 90
       50
102
RTVSPost2010PropOp50
 70
     1
102
RTVSPost2010Prop51ColorIndex
 90
      256
102
RTVSPost2010Prop51ColorRGB
 90
-16777216
102
RTVSPost2010PropOp51
 70
     0
102
RTVSPost2010Prop52
140
1.0
102
RTVSPost2010PropOp52
 70
     0
102
RTVSPost2010Prop53
 90
        2
102
RTVSPost2010PropOp53
 70
     1
102
RTVSPost2010Prop54
  1
strokes_ogs.tif
102
RTVSPost2010PropOp54
 70
     1
102
RTVSPost2010Prop55
280
     0
102
RTVSPost2010PropOp55
 70
     1
102
RTVSPost2010Prop56
140
1.0
102
RTVSPost2010PropOp56
 70
     1
102
RTVSPost2010Prop57
140
1.0
102
RTVSPost2010PropOp57
 70
     1
  0
XRECORD
  5
15D
102
{ACAD_REACTORS
330
15C
102
}
330
15C
100
AcDbXrecord
280
     1
102
RTVSPost2010Prop28
280
     0
102
RTVSPost2010PropOp28
 70
     1
102
RTVSPost2010Prop29
280
     1
102
RTVSPost2010PropOp29
 70
     1
102
RTVSPost2010Prop30
280
     1
102
RTVSPost2010PropOp30
 70
     1
102
RTVSPost2010Prop31
280
     0
102
RTVSPost2010PropOp31
 70
     1
102
RTVSPost2010Prop32
280
     0
102
RTVSPost2010PropOp32
 70
     1
102
RTVSPost2010Prop33
280
     0
102
RTVSPost2010PropOp33
 70
     1
102
RTVSPost2010Prop34
280
     0
102
RTVSPost2010PropOp34
 70
     1
102
RTVSPost2010Prop35
280
     0
102
RTVSPost2010PropOp35
 70
     1
102
RTVSPost2010Prop36
280
     0
102
RTVSPost2010PropOp36
 70
     1
102
RTVSPost2010Prop37
 90
       50
102
RTVSPost2010PropOp37
 70
     1
102
RTVSPost2010Prop38
140
0.0
102
RTVSPost2010PropOp38
 70
     1
102
RTVSPost2010Prop39
140
1.0
102
RTVSPost2010PropOp39
 70
     1
102
RTVSPost2010Prop40
 90
        0
102
RTVSPost2010PropOp40
 70
     1
102
RTVSPost2010Prop41ColorIndex
 90
       18
102
RTVSPost2010Prop41ColorRGB
 90
        0
102
RTVSPost2010PropOp41
 70
     1
102
RTVSPost2010Prop42
 90
       50
102
RTVSPost2010PropOp42
 70
     1
102
RTVSPost2010Prop43
 90
        3
102
RTVSPost2010PropOp43
 70
     1
102
RTVSPost2010Prop44ColorIndex
 90
        5
102
RTVSPost2010Prop44ColorRGB
 90
      255
102
RTVSPost2010PropOp44
 70
     1
102
RTVSPost2010Prop45
280
     0
102
RTVSPost2010PropOp45
 70
     1
102
RTVSPost2010Prop46
 90
       50
102
RTVSPost2010PropOp46
 70
     1
102
RTVSPost2010Prop47
 90
       50
102
RTVSPost2010PropOp47
 70
     1
102
RTVSPost2010Prop48
 90
       50
102
RTVSPost2010PropOp48
 70
     1
102
RTVSPost2010Prop49
280
     0
102
RTVSPost2010PropOp49
 70
     1
102
RTVSPost2010Prop50
 90
       50
102
RTVSPost2010PropOp50
 70
     1
102
RTVSPost2010Prop51ColorIndex
 90
      256
102
RTVSPost2010Prop51ColorRGB
 90
-16777216
102
RTVSPost2010PropOp51
 70
     0
102
RTVSPost2010Prop52
140
1.0
102
RTVSPost2010PropOp52
 70
     0
102
RTVSPost2010Prop53
 90
        2
102
RTVSPost2010PropOp53
 70
     1
102
RTVSPost2010Prop54
  1
strokes_ogs.tif
102
RTVSPost2010PropOp54
 70
     1
102
RTVSPost2010Prop55
280
     0
102
RTVSPost2010PropOp55
 70
     1
102
RTVSPost2010Prop56
140
1.0
102
RTVSPost2010PropOp56
 70
     1
102
RTVSPost2010Prop57
140
1.0
102
RTVSPost2010PropOp57
 70
     1
  0
ENDSEC
  0
EOF
